Аккорды Green Day - Burnout

Добавлено: @romashka
Дата добавления: 16 Марта 2013г.
Рейтинг:
0.0
Просмотров: 288
Транспонировать - +
Verse part:
1--------------------------------------------------------------
2--------------------------------------------------------------
3------------5-5-5-5-5-----------5-5-5-5-5-----------5-5-5-5-5-
4--5-5-5-5-5-5-5-5-5-5-5-5-5-5-5-5-5-5-5-5-5-5-5-5-5-5-5-5-5-5-
5--5-5-5-5-5-3-3-3-3-3-5-5-5-5-5-3-3-3-3-3-5-5-5-5-5-3-3-3-3-3-
6--3-3-3-3-3-----------3-3-3-3-3-----------3-3-3-3-3-----------

1---------------------|------------------------------------------
2---------------------|------------------------------------------
3-7-7-7-7-7-7-7-7-7-7-|------------5-5-5-5-5-----------5-5-5-5-5-
4-7-7-7-7-7-7-7-7-7-7-|--5-5-5-5-5-5-5-5-5-5-5-5-5-5-5-5-5-5-5-5-
5-5-5-5-5-5-5-5-5-5-5-|--5-5-5-5-5-3-3-3-3-3-5-5-5-5-5-3-3-3-3-3-
6---------------------|--3-3-3-3-3-----------3-3-3-3-3-----------

1-----------------------------------------|
2-----------------------------------------|
3-----------5-5-5-5-5-7-7-7-7-7-7-7-7-7-7-|
4-5-5-5-5-5-5-5-5-5-5-7-7-7-7-7-7-7-7-7-7-|
5-5-5-5-5-5-3-3-3-3-3-5-5-5-5-5-5-5-5-5-5-|
6-3-3-3-3-3-------------------------------|

Chorus Part:

1--------------------------------------------|--------------------
2--------------------------------------------|--------------------
3--5-5-5-5-5-----------5-5-----7-7-7-7-7-7-7-|--5-5-5-------5-5-5-
4--5-5-5-5-5-5-5-5-5-5-5-5-5-5-7-7-7-7-7-7-7-|--5-5-5-5-5-5-5-5-5-
5--3-3-3-3-3-5-5-5-5-5-3-3-5-5-5-5-5-5-5-5-5-|--3-3-3-5-5-5-3-3-3-
6------------3-3-3-3-3-----3-3---------------|--------3-3-3-------

1---------------------------|
2---------------------------|
3-------7-7-7-7-7-7-7-7-7-7-|
4-5-5-5-7-7-7-7-7-7-7-7-7-7-|
5-5-5-5-5-5-5-5-5-5-5-5-5-5-|
6-3-3-3---------------------|



Bridge:
1----------|----------|----------|----------|-----
2----------|----------|----------|----------|-----
3----------|----------|----------|----------|-----
4-5-5-5-3-5|-5-5-5-3-5|-5-5-5-3-5|-5-5-5-3-5|-5-5-
5-5-5-5-3-5|-5-5-5-3-5|-5-5-5-3-5|-5-5-5-3-5|-5-5-goes into verse.
6-3-3-3-1-3|-3-3-3-1-3|-3-3-3-1-3|-3-3-3-1-3|-3-3-

End-Bridge:

1-----------|
2-----------|
3-----------|
4-5-5-5-3-5-|
5-5-5-5-3-5-|
6-3-3-3-1-3-|

Here's how it goes, with the lyrics:

Do Verse part.

I declare I don't care no more,
burning up and out and going bored,
in my smoked out boring room,
my hair is shagging in my eyes,
dragging my feet to hit the street tonight,
to drive along thse shit-town lights,

Do Chorus Part:

I'm not growing up,
I'm just Burning out,
and I stepped in line to walk amongst the dead,

Do verse part:

Apathy has rained on me,
and now I'm feeling like a soggy dream,
so close to drowning but I don't mind,
I've lived inside this Mental cave,
throw my emotions in the grave,
hell, who needs them anyway,

Do Chorus
(When BJ says "Dead...." a secong time, do a x577xx and then it goes
into Bridge)

Do Bridge
comments powered by Disqus
Наверх