Аккорды Green Day - Church on Sunday

Добавлено: @romashka
Дата добавления: 16 Марта 2013г.
Рейтинг:
0.0
Просмотров: 295
Транспонировать - +
*CHORDS:

A5 D5 E5 F#5 e5
E|-----------------------------------|
B|-----------------------------------|
G|-----------7---------------------9-|
D|----7------7------2-------4------9-|
A|----7------5------2-------4------7-|
E|----5-------------0-------2--------|

*INTRO: A5 D5 E5

*VERSE 1:

A5 D5 E5
Today is the first day of the rest of our lives

A5 D5 E5
Tomorrow is too late to pretend everything's alright (now)

A5 D5 E5
I'm not getting any younger at all, as long as you don't get any older

A5 D5 E5
I'm not going to say that yesterday never was

*CHORUS:

F#5 A5 e5
Bloodshot deadbeat, and lack of sleep making your mascara bleed

F#5 A5 e5
Tears down your face leaving traces of my mistakes

(When I say)
A5 D5 e5 A5 D5 E5
If I promise to go to church on Sunday, will you go with me on Friday night?

A5 D5 e5 A5 E5
If you live with me I'll die for you and this compromise

*INTERLUDE 1: A5 D5 E5

*VERSE 2:

A5 D5 E5
I hereby solmenly swear to tell the whole truth

A5 D5 E5
And nothing but the truth is what I'll ever hear from you (now)

A5 D5 E5
"Trust" is a dirty word that comes only from such a liar

A5 D5 E5
But "respect" is something I will earn.... If you have faith

*CHORUS:

F#5 A5 e5
Bloodshot deadbeat, and lack of sleep making your mascara bleed

F#5 A5 e5
Tears down your face leaving traces of my mistakes

(When I say)
A5 D5 e5 A5 D5 E5
If I promise to go to church on Sunday, will you go with me on Friday night?

A5 D5 e5 A5 E5
If you live with me I'll die for you and this compromise

(Let's go)

*SOLO
D D D D D E E E E E E
E|------------------------2-2--2-2-2--------------|
B|---3-3--0--3-3--0-0-3---3-3--3-3-3--------------|
G|---3-3--3--3-3--3-0-3---2-2--2-2-2--1-1-1-1-1-1-|
D|---3-3--3--3-3--3-3-3---------------2-2-2-2-2-2-|
A|------------------------------------2-2-2-2-2-2-|
E|------------------------------------------------|

D D D D D E E E E E E
E|------------------------2-2--2-2-2--------------|
B|---3-3--0--3-3--0-0-3---3-3--3-3-3--------------|
G|---3-3--3--3-3--3-0-3---2-2--2-2-2--1-1-1-1-1-1-|
D|---3-3--3--3-3--3-3-3---------------2-2-2-2-2-2-|
A|------------------------------------2-2-2-2-2-2-|
E|------------------------------------------------|

D D D D D E E E E E E
E|------------------------2-2--2-2-2--------------|
B|---3-3--0--3-3--0-0-3---3-3--3-3-3--------------|
G|---3-3--3--3-3--3-0-3---2-2--2-2-2--1-1-1-1-1-1-|
D|---3-3--3--3-3--3-3-3---------------2-2-2-2-2-2-|
A|------------------------------------2-2-2-2-2-2-|
E|------------------------------------------------|

D D D D D E E E E E E
E|------------------------2-2--2-2-2--------------|
B|---3-3--0--3-3--0-0-3---3-3--3-3-3--------------|
G|---3-3--3--3-3--3-0-3---2-2--2-2-2--1-1-1-1-1-1-|
D|---3-3--3--3-3--3-3-3---------------2-2-2-2-2-2-|
A|------------------------------------2-2-2-2-2-2-|
E|------------------------------------------------|

*INTERLUDE 2: A D E

A5 D5 e5 A5 D5 E5
If I promise to go to church on Sunday, will you go with me on Friday night?

A5 D5 e5 A5 E5
If you live with me I'll die for you and this compromise

A5 D5 E5 A5 D5 e5
If I promise to go to church o--n Sun--day, will you go with me on Friday night?

A5 D5 e5 A5 E5
If you live with me I'll die for you and this compromise

A5 E5
And this compromise

A5 (End on A5)
It's a compromise

*>I feel that this tab is very accurate to the actual thing. If you are
wondering about the little sound featured in the intro and solo
please look below.

*ODD SOUND:

|-------|
|--3/2--|
|-------|
|-------|
|-------|
|-------|
comments powered by Disqus
Наверх