Аккорды Green Day - Don't Leave Me

Добавлено: @romashka
Дата добавления: 16 Марта 2013г.
Рейтинг:
0.0
Просмотров: 332
Транспонировать - +
Intro:
|----------------------------------|
|----------------------------------|
|-R-13/12/11-10/9/8-7/6/5-4/3/2----|
|----------------------------------|


Verse:
|----------------------------------|
|----------------------------------| x1
|-2-2-2-2-0-0-0-0-5-5-5-2-2-2-2----|
|----------------------------------|

Verse End:
|----------------------------------|
|----------------------------------| x1
|-2-2-2-2-0-0-0-0-5-5-5-2----------|
|----------------------------------|

Verse:
|----------------------------------|
|----------------------------------| x3
|-2-2-2-2-0-0-0-0-5-5-5-2-2-2-2----|
|----------------------------------|

Verse End:
|----------------------------------|
|----------------------------------| x1
|-2-2-2-2-0-0-0-0-5-5-5-2----------|
|----------------------------------|

Verse:
|----------------------------------|
|----------------------------------| x4
|-2-2-2-2-0-0-0-0-5-5-5-2-2-2-2----|
|----------------------------------|

Chorus:
|----------------------------------|
|----------------------------------| x2
|-----------------1-1-1-1-1-1-1-1--|
|-2-2-2-2-2-2-2-2------------------|

Verse:
|----------------------------------|
|----------------------------------| x1
|-2-2-2-2-0-0-0-0-5-5-5-2-2-2-2----|
|----------------------------------|

Verse End:
|----------------------------------|
|----------------------------------| x1
|-2-2-2-2-0-0-0-0-5-5-5-2----------|
|----------------------------------|

Then this part straight after.
|-----4--|
|---4----|
|-2------|
|--------|

Verse:
|----------------------------------|
|----------------------------------| x3
|-2-2-2-2-0-0-0-0-5-5-5-2-2-2-2----|
|----------------------------------|

Verse End:
|----------------------------------|
|----------------------------------| x1
|-2-2-2-2-0-0-0-0-5-5-5-2----------|
|----------------------------------|

Verse:
|----------------------------------|
|----------------------------------| x4
|-2-2-2-2-0-0-0-0-5-5-5-2-2-2-2----|
|----------------------------------|

Chorus:
|----------------------------------|
|----------------------------------| x4
|-----------------1-1-1-1-1-1-1-1--|
|-2-2-2-2-2-2-2-2------------------|

Verse:
|----------------------------------|
|----------------------------------| x4 This is without singing
|-2-2-2-2-0-0-0-0-5-5-5-2-2-2-2----|
|----------------------------------|

Chorus:
|----------------------------------|
|----------------------------------| x4 This is without singing
|-----------------1-1-1-1-1-1-1-1--|
|-2-2-2-2-2-2-2-2------------------|

Verse:
|----------------------------------|
|----------------------------------| x1
|-2-2-2-2-0-0-0-0-5-5-5-2-2-2-2----|
|----------------------------------|

Verse End:
|----------------------------------|
|----------------------------------| x1
|-2-2-2-2-0-0-0-0-5-5-5-2----------|
|----------------------------------|

Verse:
|----------------------------------|
|----------------------------------| x3
|-2-2-2-2-0-0-0-0-5-5-5-2-2-2-2----|
|----------------------------------|

Verse End:
|----------------------------------|
|----------------------------------| x1
|-2-2-2-2-0-0-0-0-5-5-5-2----------|
|----------------------------------|

Verse:
|----------------------------------|
|----------------------------------| x4
|-2-2-2-2-0-0-0-0-5-5-5-2-2-2-2----|
|----------------------------------|

Chorus:
|----------------------------------|
|----------------------------------| x4
|-----------------1-1-1-1-1-1-1-1--|
|-2-2-2-2-2-2-2-2------------------|

Verse:
|----------------------------------|
|----------------------------------| x1
|-2-2-2-2-0-0-0-0-5-5-5-2-2-2-2----|
|----------------------------------|
comments powered by Disqus
Наверх