Аккорды Green Day - Emenius Sleepus

Добавлено: @romashka
Дата добавления: 16 Марта 2013г.
Рейтинг:
0.0
Просмотров: 255
Транспонировать - +
Chords:

B5 E F# A
|--x----0---0----x---
|--x----0---0----2---
|--4----1---3----2---
|--4----2---4----2---
|--2----2---4----0---
|--x----0---2----x---


Intro:

B5 E B5 E B5 E A F#


Verse:

B5 E B5 E B5 E
I saw my friend the other day

A F#
and i dont know

B5 E B5 E B5 E
exactly just what he became

A F#
It doesnt show


Chorus:

E F#
Really wasnt long ago

E F#
that i was just like you

E F#
and now i think im sick

B5 E B5 F# B5 E A F#
and i want to go home

Verse 2

Chorus 2:

E F#
I knew you back when

E F#
And you...you knew me

E F#
And now i think your sick

B5 E B5 F# B5 E A F#
And i wanna go home

B5 E B5 F# B5 E A F# B5

Bridge:

Anybody ever say no?
|-------------------------0--------
|----------------------------0-----
|---------------2-2--2----------2--
|---------------2-2--2-------------
|---------------0-0--0-------------
|----------------------------------


Ever tell you that you werent right?
|--------------------------------------0--------
|-----------------------------------------0-----
|----------------------------2-2--2----------2--
|----------------------------2-2--2-------------
|----------------------------0-0--0-------------
|-----------------------------------------------

Where did all the little kids go?
|--------------------------------------0--------
|-----------------------------------------0-----
|----------------------------2-2--2----------2--
|----------------------------2-2--2-------------
|----------------------------0-0--0-------------
|-----------------------------------------------

Did you lose it in a hateful fight? And you know its true
|---------------------------------------------------------------
|---------------------------------------------------------------
|----------------------------2--2-2-2-2-2-2-2-2-2-2-------------
|----------------------------2--2-2-2-2-2-2-2-2-2-2--4-4---4-4--
|----------------------------0--0-0-0-0-0-0-0-0-0-0--4-4---4-4--
|----------------------------------------------------2-2---2-2--


Repeat chorus 1

Outro:

B5 E B5 F# B5 E A F# B5



Verse 2 lyrics:

How have you been? how have i been?
Its been so long
What have you done with all your time
And what went wrong?
comments powered by Disqus
Наверх