Аккорды Green Day - Geek Stink Breath

Добавлено: @romashka
Дата добавления: 16 Марта 2013г.
Рейтинг:
0.0
Просмотров: 305
Транспонировать - +
|---------------------|
|---------------------|
|-----------4-4-------| 4x
|-4-4-2-2-2-4-4-------|
|-4-4-2-2-2-2-2-------|
|-2-2-0-0-0-----------|

|-------------------------------------------|
|-------------------------------------------|
|-------------------------------------------| 1x
|-4-4-4-4-2-2-2-2-4-4-4-4-2-2-2-2-----------|
|-4-4-4-4-2-2-2-2-4-4-4-4-2-2-2-2-----------|
|-2-2-2-2-0-0-0-0-2-2-2-2-0-0-0-0-----------|
pm . . . . . . . . . . . . . . . .

|-------------------------------------------|
|-------------------------------------------|
|-------------------------------------------| 1x
|-4-4-4-4-2-2-2-2-4-4-4-4-2-2-2-2-----------|
|-4-4-4-4-2-2-2-2-4-4-4-4-2-2-2-2-----------|
|-2-2-2-2-0-0-0-0-2-2-2-2-0-0-0-0-----------|
pm . . . . . . . . . . . . . . . .

|-------------------------------------------|
|-------------------------------------------|
|-------------------------------------------| 3x
|-4-4-4-4-2-2-2-2-4-4-4-4-2-2-2-2-----------|
|-4-4-4-4-2-2-2-2-4-4-4-4-2-2-2-2-----------|
|-2-2-2-2-0-0-0-0-2-2-2-2-0-0-0-0-----------|
pm . . . . . . . . . . . . . . . .

|-------------------------------------------|
|-------------------------------------------|
|-------------------------------------------| 1x
|-4-4-4-4-2-2-2-2-4-4-4-4-4-4-4-4-----------|
|-4-4-4-4-2-2-2-2-4-4-4-4-4-4-4-4-----------|
|-2-2-2-2-0-0-0-0-2-2-2-2-2-2-2-2-----------|
pm . . . . . . . . . . . . . . . .

|------------------------------------|
|------------------------------------|
|------------------------------------| 2x
|-7-7-7-2-2-2-2-7-7-7-2-2-2-2--------|
|-7-7-7-2-2-2-2-7-7-7-2-2-2-2--------|
|-5-5-5-0-0-0-0-5-5-5-0-0-0-0--------|

|------------------------------------|
|------------------------------------|
|------------------------------------| 1x
|-4-4-4-2-2-2-2-4-4-4-2-2-2-2--------|
|-4-4-4-2-2-2-2-4-4-4-2-2-2-2--------|
|-2-2-2-0-0-0-0-2-2-2-0-0-0-0--------|

|------------------------------------|
|------------------------------------|
|------------------------------------| 1x
|-4-4-4-2-2-2-2-4-4-4-4-4-4-4--------|
|-4-4-4-2-2-2-2-4-4-4-4-4-4-4--------|
|-2-2-2-0-0-0-0-2-2-2-2-2-2-2--------|

|-------------------------------------------|
|-------------------------------------------|
|-------------------------------------------| 3x
|-4-4-4-4-2-2-2-2-4-4-4-4-2-2-2-2-----------|
|-4-4-4-4-2-2-2-2-4-4-4-4-2-2-2-2-----------|
|-2-2-2-2-0-0-0-0-2-2-2-2-0-0-0-0-----------|
pm . . . . . . . . . . . . . . . .

|-------------------------------------------|
|-------------------------------------------|
|-------------------------------------------| 1x
|-4-4-4-4-2-2-2-2-4-4-4-4-4-4-4-4-----------|
|-4-4-4-4-2-2-2-2-4-4-4-4-4-4-4-4-----------|
|-2-2-2-2-0-0-0-0-2-2-2-2-2-2-2-2-----------|
pm . . . . . . . . . . . . . . . .

|------------------------------------|
|------------------------------------|
|------------------------------------| 2x
|-7-7-7-2-2-2-2-7-7-7-2-2-2-2--------|
|-7-7-7-2-2-2-2-7-7-7-2-2-2-2--------|
|-5-5-5-0-0-0-0-5-5-5-0-0-0-0--------|

|------------------------------------|
|------------------------------------|
|------------------------------------| 1x
|-4-4-4-2-2-2-2-4-4-4-2-2-2-2--------|
|-4-4-4-2-2-2-2-4-4-4-2-2-2-2--------|
|-2-2-2-0-0-0-0-2-2-2-0-0-0-0--------|

|------------------------------------|
|------------------------------------|
|------------------------------------| 1x
|-4-4-4-2-2-2-2-4-4-4-4-4-4-4--------|
|-4-4-4-2-2-2-2-4-4-4-4-4-4-4--------|
|-2-2-2-0-0-0-0-2-2-2-2-2-2-2--------|

|---------------------|
|---------------------|
|-----------4-4-------| 8x
|-4-4-2-2-2-4-4-------|
|-4-4-2-2-2-2-2-------|
|-2-2-0-0-0-----------|






|-------------------------------------------|
|-------------------------------------------|
|-------------------------------------------| 3x
|-4-4-4-4-2-2-2-2-4-4-4-4-2-2-2-2-----------|
|-4-4-4-4-2-2-2-2-4-4-4-4-2-2-2-2----------|
|-2-2-2-2-0-0-0-0-2-2-2-2-0-0-0-0----------|

|-------------------------------------------|
|-------------------------------------------|
|-------------------------------------------| 1x
|-4-4-4-4-2-2-2-2-4-4-4-4-4-4-4-4-----------|
|-4-4-4-4-2-2-2-2-4-4-4-4-4-4-4-4-----------|
|-2-2-2-2-0-0-0-0-2-2-2-2-2-2-2-2-----------|

|------------------------------------|
|------------------------------------|
|------------------------------------| 2x
|-7-7-7-2-2-2-2-7-7-7-2-2-2-2--------|
|-7-7-7-2-2-2-2-7-7-7-2-2-2-2--------|
|-5-5-5-0-0-0-0-5-5-5-0-0-0-0--------|

|------------------------------------|
|------------------------------------|
|------------------------------------| 1x
|-4-4-4-2-2-2-2-4-4-4-2-2-2-2--------|
|-4-4-4-2-2-2-2-4-4-4-2-2-2-2--------|
|-2-2-2-0-0-0-0-2-2-2-0-0-0-0--------|

|------------------------------------|
|------------------------------------|
|------------------------------------| 1x
|-4-4-4-2-2-2-2-4-4-4-4-4-4-4--------|
|-4-4-4-2-2-2-2-4-4-4-4-4-4-4--------|
|-2-2-2-0-0-0-0-2-2-2-2-2-2-2--------|

|---------------------|
|---------------------|
|-----------4-4-------| 6x
|-4-4-2-2-2-4-4-------|
|-4-4-2-2-2-2-2-------|
|-2-2-0-0-0-----------|

|-----|
|-----|
|-----|
|4-4--|
|4-4--|
|2-2--|
comments powered by Disqus
Наверх