Аккорды Green Day - Haushinka

Добавлено: @romashka
Дата добавления: 16 Марта 2013г.
Рейтинг:
0.0
Просмотров: 299
Транспонировать - +
Intro
e|---------|---------|
B|---------|---------|
G|-7-------|-------5-|
D|-7-------|-------5-|
A|-5-------|-------3-|
E|---------|---------|


Verse
e|-2---------------|-3---------------|-5---------------|-3---------------|
B|-------3---------|-------3---------|-------3---------|-------3---------|
G|-----------------|-----------------|-----------------|-----------------|
D|-------------0---|-------------0---|-------------0---|-------------0---|
A|-----------------|-----------------|-----------------|-----------------|
E|-----------------|-----------------|-----------------|-----------------|


Fill 1
e|-2---------------|-3---------------|-----------------|-----------------|
B|-------3---------|-------3---------|-----------------|-----------------|
G|-----------------|-----------------|-5-5-5-5-5-5-5-5-|-----------------|
D|-------------0---|-------------0-0-|-5-5-5-5-5-5-5-5-|-5-5-5-5-5-5-5-5-|
A|-----------------|---------------0-|-3-3-3-3-3-3-3-3-|-5-5-5-5-5-5-5-5-|
E|-----------------|---------------0-|-----------------|-3-3-3-3-3-3-3-3-|
pm.........

Chorus
e|-----------------|-----------------|-----------------|-----------------|
B|-----------------|-----------------|-----------------|-----------------|
G|-7---7-7---7-7-7-|-5---5-5---5-5-5-|-----------------|-----------------|
D|-7---7-7---7-7-7-|-5---5-5---5-5-5-|-5---5-5-5-5-5-5-|-3-3-3-3-/-5-5-5-|
A|-5---5-5---5-5-5-|-3---3-3---3-3-3-|-5---5-5-5-5-5-5-|-3-3-3-3-/-5-5-5-|
E|-----------------|-----------------|-3---3-3-3-3-3-3-|-1-1-1-1-/-3-3-3-|


Fill 2
e|-----------------|-----------------|-----------------|-----------------|
B|-----------------|-----------------|-----------------|-----------------|
G|-----------------|-----------------|-----------------|---------------5-|
D|-3-3-3-3-/-5-5-5-|-3-3-3-3-/-5-5-7-|-7-7-7-7-7-7-7-7-|-7-7-7-7-7-7---5-|
A|-3-3-3-3-/-5-5-5-|-3-3-3-3-/-5-5-7-|-7-7-7-7-7-7-7-7-|-7-7-7-7-7-7-0-3-|
E|-1-1-1-1-/-3-3-3-|-1-1-1-1-/-3-3-5-|-5-5-5-5-5-5-5-5-|-5-5-5-5-5-5-0---|

___________________________
Bridge A 1,3. |
e|-----------------|-----------------|-----------------|--------|
B|-----------------|-----------------|-----------------|--*--/--|
G|*4---4-4-4-4-4-2-|---2-2---2-2-2---|-----------------|----/--*|
D|*4---4-4-4-4-4-2-|---2-2---2-2-2-0-|-4-/-5-5-5-5-5-5-|---/---*|
A|-2---2-2-2-2-2-0-|---0-0---0-0-0-0-|-4-/-5-5-5-5-5-5-|--/--*--|
E|-----------------|---------------0-|-2-/-3-3-3-3-3-3-|--------|
____________________________
|2.
e|-----------------|--------|
B|-----------------|--*--/--|
G|-----------------|----/---|
D|-5-5-5-5-5-5-5-5-|---/----|
A|-5-5-5-5-5-5-5-5-|--/--*--|
E|-3-3-3-3-3-3-3-3-|--------|


Fill 3
e|-----------------|-----------------|-----------------|---------------------|
B|-----------------|-----------------|-----------------|---------------------|
G|-4---4-4-4-4-4-2-|---2-2-2---2-2---|-----------------|---------------------|
D|-4---4-4-4-4-4-2-|---2-2-2---2-2-0-|-5---------------|---------------------|
A|-2---2-2-2-2-2-0-|---0-0-0---0-0-0-|-5---5-5-5-5-5-5-|-5-5-5-5-5-5-5-5-5-5-|
E|-----------------|---------------0-|-3---3-3-3-3-3-3-|-3-3-3-3-3-3-3-3-3-3-|
pm...............................
e|-----------------|-----------------|
B|-----------------|-----------------|
G|-----------------|-----------------|
D|-5-5-5-5-5-5-5-5-|-5-5-5-5-5-5-5-5-|
A|-5-5-5-5-5-5-5-5-|-5-5-5-5-5-5-5-5-|
E|-3-3-3-3-3-3-3-3-|-3-3-3-3-3-3-3-3-|


Bridge B
e|-----------------|-----------------|
B|-----------------|-----------------|
G|-----x-7-7---x---|-----------------|
D|-7---x-7-7---x-5-|---5---7-7-7-7-7-|
A|-7---x-5-5---x-5-|---5---7-7-7-7-7-|
E|-5---x-------x-3-|---3---5-5-5-5-5-|


Guitar Solo
Guitar 1
e|-----------------|-----------------|-----------------|-----------------|
B|-3-3-5-5-6-6-6-3-|-3-5-5-6-6-5-3-3-|-2-2-3-3-5-5-5-5-|-5-3-3-2-2-3-2-2-|
G|-----------------|-----------------|-----------------|-----------------|
D|-----------------|-----------------|-----------------|-----------------|
A|-----------------|-----------------|-----------------|-----------------|
E|-----------------|-----------------|-----------------|-----------------|
|Guitar 2
e|-----------------|-----------------|-----------------|-----------------|
B|-----------------|-----------------|-----------------|-----------------|
G|-3-3-3-3-3-3-3-3-|-3-3-3-3-3-3-3-3-|-2-2-2-2-2-2-2-2-|-2-2-2-2-2-2-2-2-|
D|-3-3-3-3-3-3-3-3-|-3-3-3-3-3-3-3-3-|-2-2-2-2-2-2-2-2-|-2-2-2-2-2-2-2-2-|
A|-1-1-1-1-1-1-1-1-|-1-1-1-1-1-1-1-1-|-0-0-0-0-0-0-0-0-|-0-0-0-0-0-0-0-0-|
E|-----------------|-----------------|-----------------|-----------------|


e|-----------------|-----------------|-5-5-5-5-5-5-5-5-|-5-5-5-5-5-5-5-5-|
B|-3-3-5-5-6-6-6-3-|-3-5-5-6-6-5-5-3-|-5-5-5-5-5-5-5-5-|-5-5-5-5-5-5-5-5-|
G|-----------------|-----------------|-----------------|-----------------|
D|-----------------|-----------------|-----------------|-----------------|
A|-----------------|-----------------|-----------------|-----------------|
E|-----------------|-----------------|-----------------|-----------------|
|Guitar 2
e|-----------------|-----------------|-----------------|-----------------|
B|-----------------|-----------------|-----------------|-----------------|
G|-3-3-3-3-3-3-3-3-|-3-3-3-3-3-3-3-3-|-2-2-2-2-2-2-2-2-|-2-2-2-2-2-2-2-2-|
D|-3-3-3-3-3-3-3-3-|-3-3-3-3-3-3-3-3-|-2-2-2-2-2-2-2-2-|-2-2-2-2-2-2-2-2-|
A|-1-1-1-1-1-1-1-1-|-1-1-1-1-1-1-1-1-|-0-0-0-0-0-0-0-0-|-0-0-0-0-0-0-0-0-|
E|-----------------|-----------------|-----------------|-----------------|



Fill 4
e|-----------------|-----------------|-----------------|
B|-----------------|-----------------|-----------------|
G|-----------------|-----------------|-----------------|
D|-3-3-3-3-/-5-5-5-|-3-3-3-3-/-5-5-5-|-----------------|
A|-3-3-3-3-/-5-5-5-|-3-3-3-3-/-5-5-5-|-7-----(7)-------|
E|-1-1-1-1-/-3-3-3-|-1-1-1-1-/-3-3-3-|-5-----(5)-------|


Song Order:

Intro 4x
Verse (with intro) 5x
Fill 1 1x
Chorus 4x
Fill 2 1x
Verse (with intro) 5x
Fill 1 1x
Chorus 4x
Fill 2 1x
Bridge A 1x
Fill 3 1x
Bridge B 4x
Guitar Solo 1x
Chorus 4x
Fill 4 1x
comments powered by Disqus
Наверх