Аккорды Green Day - Hold On

Добавлено: @romashka
Дата добавления: 16 Марта 2013г.
Рейтинг:
0.0
Просмотров: 274
Транспонировать - +
Intro
E|--3--0-|
B|--3--1-|
G|--0--0-|
D|--0--2-|
A|--2--3-|
E|--3--0-|

As I step to the edge...
E|-3--0--3--2-|
B|-3--1--3--3-|
G|-0--0--0--2-|
D|-0--2--0--0-|
A|-2--3--2--0-|
E|-3--0--3----|

When you lost the hope...
E|--0--3--2--3--0--3--0--3-|
B|--0--3--3--3--0--3--1--3-|
G|--0--0--2--0--0--0--0--0-|
D|--2--0--0--0--2--0--2--0-|
A|--2--2--0--2--2--2--3--2-|
E|--0--3-----3--0--3--0--3-|

A cry of help....
E|-3--0--3--2-|
B|-3--1--3--3-|
G|-0--0--0--2-|
D|-0--2--0--0-|
A|-2--3--2--0-|
E|-3--0--3----|

When you lost the hope...
E|--0--3--2--3--0--3--0--3-|
B|--0--3--3--3--0--3--1--3-|
G|--0--0--2--0--0--0--0--0-|
D|--2--0--0--0--2--0--2--0-|
A|--2--2--0--2--2--2--3--2-|
E|--0--3-----3--0--3--0--3-|

E|-3--0--3--2-|
B|-3--1--3--3-|
G|-0--0--0--2-|
D|-0--2--0--0-|
A|-2--3--2--0-|
E|-3--0--3----|

Solo
E|--------------------------------------------------|
B|----------------------------------------10-11--12-|
G|------------------7-------------------------------|
D|-7-7-7-9---7-7-7-----7-7-7-9---7-7-7--------------|
A|--------------------------------------------------|
E|--------------------------------------------------|

E|------------------------------------------------------------------------|
B|----------10-------------10-------------10-----------------10-----------|
G|-12---12--------12--12--------12-12-12-------12-11-12--12------12-11-12-|
D|------------------------------------------------------------------------|
A|------------------------------------------------------------------------|
E|------------------------------------------------------------------------|

play solo 2 times some notes are played more than once

When you lost the hope...
E|--0--3--2--3--0--3--0--3-|
B|--0--3--3--3--0--3--1--3-|
G|--0--0--2--0--0--0--0--0-|
D|--2--0--0--0--2--0--2--0-|
A|--2--2--0--2--2--2--3--2-|
E|--0--3-----3--0--3--0--3-|

Outro
E|--3--0-|
B|--3--1-|
G|--0--0-|
D|--0--2-|
A|--2--3-|
E|--3--0-|
comments powered by Disqus
Наверх