Аккорды Green Day - I Fought The Law

Добавлено: @romashka
Дата добавления: 16 Марта 2013г.
Рейтинг:
0.0
Просмотров: 301
Транспонировать - +
Intro
G:|--------|--------|--------|--------|--------|--------|--------|--------|
D:|33333333|--------|33333333|--------|33333333|--------|33333333|--------|
A:|--------|11113333|--------|310-----|--------|11113333|--------|310-----|
E:|--------|--------|--------|---1----|--------|--------|--------|---1----|

Verse
G:|--------|--------|--------|--------|--------|--------|
D:|33333333|----3333|33333333|----3333|33333333|----3333|
A:|--------|1111----|--------|3335----|--------|3335----|
E:|--------|--------|--------|--------|--------|--------|

G:|--------|--------|--------|--------|--------|--------|
D:|33333333|----3333|33333333|----3333|33333333|----3333|
A:|--------|1111----|--------|3335----|--------|3335----|
E:|--------|--------|--------|--------|--------|--------|

Chorus
G:|--------|--------|--------|--------|
D:|--003300|--003300|--------|--------|
A:|11------|11------|--003300|--003300|
E:|--------|--------|11------|11------|

G:|--------|--------|--------|--------|--------|--------|
D:|--003300|--003300|33333333|----3333|33333333|--------|
A:|11------|11------|--------|1111----|--------|310-----|
E:|--------|--------|--------|--------|--------|---1----|

Guitar Solo
G:|--------|--------|--------|--------|--------|--------|--------|--------|
D:|--003300|--003300|--------|--------|--003300|--003300|--------|--------|
A:|11------|11------|----33--|--3--3--|11------|11------|----33--|--3--3--|
E:|--------|--------|111-----|1--1---1|--------|--------|111-----|1--1---1|

G:|--------|--------|--------|--------|--------|--------|--------|--------|
D:|--003300|--003300|--------|--------|--003300|--003300|33333333|----3333|
A:|11------|11------|----33--|--3--3--|11------|11------|--------|1111----|
E:|--------|--------|111-----|1--1---1|--------|--------|--------|--------|

G:|--------|--------|
D:|33333333|--------|
A:|--------|310-----|
E:|--------|---1----|

Verse 2
G:|--------|--------|--------|--------|--------|--------|
D:|33333333|--------|33333333|----3333|33333333|----3333|
A:|--------|--------|--------|3335----|--------|3335----|
E:|--------|--------|--------|--------|--------|--------|

G:|--------|--------|--------|--------|--------|--------|
D:|33333333|----3333|33333333|----3333|33333333|----3333|
A:|--------|1111----|--------|3335----|--------|3335----|
E:|--------|--------|--------|--------|--------|--------|

Chorus
G:|--------|--------|--------|--------|
D:|--003300|--003300|--------|--------|
A:|11------|11------|--003300|--003300|
E:|--------|--------|11------|11------|

G:|--------|--------|--------|--------|--------|--------|
D:|--003300|--003300|33333333|----3333|33333333|--------|
A:|11------|11------|--------|1111----|--------|310-----|
E:|--------|--------|--------|--------|--------|---1----|

Outro
G:|--------|--------|--------|--------|--------|--------|--------|--------|
D:|33333333|--------|33333333|--------|33333333|--------|33333333|--------|
A:|--------|11113333|--------|310-----|--------|11113333|--------|310-----|
E:|--------|--------|--------|---1----|--------|--------|--------|---1----|

G:|--------|--------|--------|--------|--------|--------|--------|--------|
D:|--------|--------|--------|--------|--------|--------|--------|--------|
A:|--------|--------|--------|--------|--------|--------|--------|--------|
E:|--------|--------|--------|--------|--------|--------|--------|--------|

G:|--------|--------|--------|--------|--------|--------|--------|--------|
D:|33333333|----3333|33333333|----3333|33333333|----3333|33333333|--------|
A:|--------|1111----|--------|3335----|--------|1111----|--------|310-----|
E:|--------|--------|--------|--------|--------|--------|--------|---1----|
comments powered by Disqus
Наверх