Аккорды Green Day - Knowledge

Добавлено: @romashka
Дата добавления: 16 Марта 2013г.
Рейтинг:
0.0
Просмотров: 271
Транспонировать - +
Main riff
D7
|------------------------------------------
|-------7--x------7--x------7--x------7--x-
|---5---5--x--5---5--x--5---5--x--5---5--x-
|---7---7--x--7---7--x--7---7--x--7---7--x-
|---5---5-----5---5-----5---5-----5---5----
|------------------------------------------

C7 G7
-----------------------------------------|
-5---5---5--5--5--x---------3------3--x--|
-3---3---3--3--3--x--4---4--4---4--4--x--|
-5---5---5--5--5--x--3---3--3---3--3--x--|
-3---3---3--3--3--x--5---5--5---5--5-----|
---------------------3---3--3---3--3-----|


Solo
|--------10--------10--------10--------10-
|-----10--------10--------10--------10----
|-12b-------12b-------12b-------12b-------
|-----------------------------------------
|-----------------------------------------
|-----------------------------------------

--------10--------10--------10--------10--
-----10--------10--------10--------10-----
-12b-------12b-------12b-------12b--------
------------------------------------------
------------------------------------------
------------------------------------------

------------------------------------------
----------------------------------10-13b--
-12b-10-10-10-10-10-10-10-10-12b----------
------------------------------------------
------------------------------------------
------------------------------------------

-10-13b--10-------------------------------
------------13-10-13b-13p11p10------------
-------------------------------12b-12-10--
------------------------------------------
------------------------------------------
------------------------------------------

-------------------------------------------
-------------------------------------------
-12-12b--12-10--12-10--10-12b-12b-12b-10---
-------------------------------------------
-------------------------------------------
-------------------------------------------

---------------------------------------------|
---------------------------------------------|
-10-10-10-10-10-10---------------------------|
-------------------12-10----------------12v--|
-------------------------12-11-10-10---------|
-------------------------------------13------|


Order
Main riff x 10
Solo
Main riff x 6
End on D7
comments powered by Disqus
Наверх