Аккорды Green Day - Life During Wartime

Добавлено: @romashka
Дата добавления: 16 Марта 2013г.
Рейтинг:
0.0
Просмотров: 214
Транспонировать - +
intro riff:
E--------------------------------------------------------------------
B--------------------------------------------------------------------
G-------------------------7-7-7-7-7-7-7-7-7-7--9-9-------------------
D--7-7-7-7-7-7-7-7--11-9--7-7-7-7-7-7-7-7-7-7--9-9-------------------
A--7-7-7-7-7-7-7-7--11-9--5-5-5-5-5-5-5-5-5-5--7-7-------------------
E--5-5-5-5-5-5-5-5--9--7---------------------------------------------

verse:
E--------------------------------------------------------------------
B--------------------------------------------------------------------
G-----------------------------------------------7---7-7-7-7-7-7-7----
D--7---7-7-7-7-7-7-7--11--11-11-11-11-11-11-11--7---7-7-7-7-7-7-7----
A--7---7-7-7-7-7-7-7--11--11-11-11-11-11-11-11--5---5-5-5-5-5-5-5----
E--5---5-5-5-5-5-5-5--9---9--9--9--9--9--9--9------------------------
++++PM+++++++ ++++++++PM++++++++++ ++++++++PM+++
E--------------------------------------------------------------------
B--------------------------------------------------------------------
G--7--7-7-7-7-7-7-7--------------------------------------------------
D--7--7-7-7-7-7-7-7--------------------------------------------------
A--5--5-5-5-5-5-5-5--------------------------------------------------
E--------------------------------------------------------------------
++++++PM+++++
chorus:
E--------------------------------------------------------------------
B--------------------------------------------------------------------
G-----------------7-7-7-7-7-7----------------7-7-7-7-7-7-7-----------
D--4-4-4-4-4-4-4--7-7-7-7-7-7-4-4-4-4-4-4-4--7-7-7-7-7-7-7-----------
A--4-4-4-4-4-4-4--5-5-5-5-5-5-4-4-4-4-4-4-4--5-5-5-5-5-5-5-----------
E--2-2-2-2-2-2-2--------------2-2-2-2-2-2-2--------------------------

E--------------------------------------------------------------------
B--------------------------------------------------------------------
G-----------------7-7-7-7-7-7-7--9-9-9-9-9-9-9-9-9-9-----------------
D--4-4-4-4-4-4-4--7-7-7-7-7-7-7--9-9-9-9-9-9-9-9-9-9-----------------
A--4-4-4-4-4-4-4--5-5-5-5-5-5-5--7-7-7-7-7-7-7-7-7-7-----------------
E--2-2-2-2-2-2-2-----------------------------------------------------


bridge:
E--------------------------------------------------------------------
B--------------------------------------------------------------------
G--7-x-x-x-x-x-x---------7-x-x-x-x-x-x---------7-x-x-x-x-x-x---------
D--7-x-x-x-x-x-x-7-7-6-7-7-x-x-x-x-x-x-7-7-6-7-7-x-x-x-x-x-x-7-7-6-7-
A--5-x-x-x-x-x-x-7-7-6-7-5-x-x-x-x-x-x-7-7-6-7-5-x-x-x-x-x-x-7-7-6-7-
E----------------5-5-4-5---------------5-5-4-5---------------5-5-4-5-

E--------------------------------------------------------------------
G--------------------------------------------------------------------
D--7-7-7-7-7-7-7-7-7-7-9-9-9-9-9-9-9-9-9-9---------------------------
A--7-7-7-7-7-7-7-7-7-7-9-9-9-9-9-9-9-9-9-9---------------------------
A--5-5-5-5-5-5-5-5-5-5-7-7-7-7-7-7-7-7-7-7---------------------------
E--------------------------------------------------------------------

last chorus:
E--------------------------------------------------------------------
B--------------------------------------------------------------------
G-----------------7-7-7-7-7-7----------------7-7-7-7-7-7-7-----------
D--4-4-4-4-4-4-4--7-7-7-7-7-7-4-4-4-4-4-4-4--7-7-7-7-7-7-7-----------
A--4-4-4-4-4-4-4--5-5-5-5-5-5-4-4-4-4-4-4-4--5-5-5-5-5-5-5-----------
E--2-2-2-2-2-2-2--------------2-2-2-2-2-2-2--------------------------

E--------------------------------------------------------------------
B--------------------------------------------------------------------
G-----------------7-7-7-7-7-7-7--------------------------------------
D--4-4-4-4-4-4-4--7-7-7-7-7-7-7-4------------------------------------
A--4-4-4-4-4-4-4--5-5-5-5-5-5-5-4--4-4-4-4-4-4-4-4-4-4-4-------------
E--2-2-2-2-2-2-2----------------2--2-2-2-2-2-2-2-2-2-2-2-------------

+++++++++PM++++++++++
E--------------------------------------------------------------------
B--------------------------------------------------------------------
G--7-7-7-7-7-7-7-7-7-9-9-9-9-9-9--9--9-------------------------------
D--7-7-7-7-7-7-7-7-7-9-9-9-9-9-9--9--9---7----------7----------------
A--5-5-5-5-5-5-5-5-5-7-7-7-7-7-7--7--7---7----------7----------------
E----------------------------------------5----------5----------------

Song Structure:

Intro riff (2 times)
Verse (2 times)
Chorus
Intro (2 times)
Verse (2 times)
Chorus
Bridge (2 times)
Last chorus
comments powered by Disqus
Наверх