Аккорды Green Day - Only Of You

Добавлено: @romashka
Дата добавления: 16 Марта 2013г.
Рейтинг:
0.0
Просмотров: 227
Транспонировать - +
A D B G F E
e|-----------------------------
b|-----------------------------
g|--------7--------------------
d|--7-----7----9-----5--3----2------
a|--7-----5----9-----5--3----2------
e|--5----------7-----3--1----0-------
-Intro: F - G - D - B (4 times)
-after intro play the following: A - B - D - E (2 times)
verse:
A B D
I wish I could tell you
E A
But the words would come out wrong
B D
Oh if you only knew
E A
The way I felt for so long
B D
I know that were worlds apart
E A
But I just don't seem to care
B D
These feelings in my heart
E
Only with you I want to share

-Chorus:
F - G - D - B
The first time I caught
F - G - D - B
a glimse of you
F - G - D - B
Then all my thoughts
F - G - D - B
were only of you

A B D E
Ah...........ah..........ah..........ah

Repeat the A-B-D-E riff once here!!!

-verse 2
A B D
I hope that when time goes by
E A
You will think the same about me
B D
Many nights awake I lie
E A
I only wish that you can see
B D
I know that were only friends
E A
I hope this feeling never ends
B D
If I can only hold you
E
It's the only thing I want to do.

-Chorus:
F - G - D - B
The first time I caught
F - G - D - B
a glimse of you
F - G - D - B
Then all my thoughts
F - G - D - B
were only of you

B A F# - E - F# - E - F# - E - F# - E (repeat this part 4 times)
Ah...........Ah
Now do this part again after the lead:
A - B - D - E (repeat this 6 times)
End on the A chord!!
Now do this part again after the lead:
SOLO
E|---------------------------------------------|
A|---------------------------------------------|
D|---------------------------------------------|
G|--12b14-12b14-12b14-12b14-12b14-12b14-12b14--|
B|--10----10----10----10----10----10----10-----|
e|---------------------------------------------|

E|-------------------------------------------------------|
A|-------------------------------------------------------|
D|-------------------------------------------------------|
G|--12b13-12b13-12b13-12b13-12b13-12b13-12b13-10~~-10~~--|
B|--12b13-12b13-12b13-12b13-12b13-12b13-12b13-10~~-10~~--|
e|-------------------------------------------------------|

E|---------------------------------------------------------|
A|---------------------------------------------------------|
D|---------------------------------------------------------|
G|--------12p10~~--12b14---12b14---12b14---12b14-----------|
B|--12p10---------------10------10------10-----------------|
e|-----------------------------------------------9-9h12p9--|

E|---------------------------------------------------------|
A|---------------------------------------------------------|
D|---------------------------12----------------------------|
G|---------------12b14r12-10----10~~-----------------------|
B|--13b15~~13p10-------------------------------------------|
e|-----------------------------------10h13p10-10h13/15b17--|

E|-------------------------------|
A|-------------------------------|
D|-------------------------------|
G|-------------------------------|
B|-----------------------13b15~~-|
e|--15b17-15b17r15⁄13p10---------|

Most of this part below is palm muted

E|---------------------------------------------------|
A|---------------------------------------------------|
D|--------------------12-10--------------------------|
G|--------------12-10-------12b14-12b14-12b14-12b14--|
B|--------13-10-------------10----10----10----10-----|
e|--13-10--------------------------------------------|
PM****************

E|--10-13------------------------------------------------------------|
A|--------10-12------------------------------------------------------|
D|--------------10-12------------------------------------------------|
B|--------------------10-12b14-12b14-12b14-12b14---------------------|
G|-----------------------10----10----10----10------------10-13b15~~--|
e|-------------------------------------------------10h13-------------|
comments powered by Disqus
Наверх