Аккорды Green Day - Pulling Teeth

Добавлено: @romashka
Дата добавления: 16 Марта 2013г.
Рейтинг:
0.0
Просмотров: 260
Транспонировать - +
Intro:

B(5) B B5/A B/A Bsus4/A
|---------------|-----------------|------------------|
|---------------|-----4-------4---|-----4-----5-5--5-|
|-4-4-4---4-----|-4-4-4-4-4-4-4-4-|-4-4-4-4-4-4-4--4-|
|-4-4-4---4-----|-4-4-4-4-4-4-4-4-|-4-4-4-4-4-4-4--4-|
|-2-2-2---2-----|-2-2-2-2-2-2-2-2-|-0-0-0-0-0-0-2--0-|
|---------------|-----------------|------------------|

E A Asus2 E B E A
I'm all busted up. Broken bones and nasty cuts. Accidents will happen
Asus4 E B E E A Asus2 E
but this time I can't get up. She comes to check on me making sure
B E A Asus2 E B E
I'm on my knees, after all she's the one who put me in this state.



C#m E
Is she ultra violent? Is she disturbed?I better tell that I love her
C#m B5 (B B5/A)
Before she does it all over again. Oh, God she's killing me



E A Asus2 E B
For now I lay around. Hell that's all I can really do.
E A Asus2 E B E
She takes good care of me, just keep saying my love is true.


Simple Guitar Solo:

e|-----0-0-------------------------------------------------------------|
B|-12/-2-0-------------0-1-2-2-0----------2----------------------------|
G|----------1--4-4---1-------------1-4-4----4-1-------------1-1--------|
D|----------------------------------------------4-4-2---2-4-----4-4-2⁄-|
A|---------------------------------------------------------------------|
E|---------------------------------------------------------------------|

Extended Guitar solo:
E A Asus2 E B
e|---0---0-----0--0-0-0---------0-0-0---0--0----0--------------|
B|-0h2---0--0--0--2-2-2---2--0--0-0-0-0h2--0--0-0--2/4--4---4--|
G|----------1--1--2-2-2---2--1----------------1-1--2/4--4---4--|
D|------------------------2------------------------------------|
A|-------------------------------------------------------------|
E|-------------------------------------------------------------|
E A

e|--------------------------------0--0--0-0--0--0--0--0--0-----|
B|--5--5--5---7--7--7---5--4--0---5--5--5/9--9--9--10-9--10/---|
G|--6--6--6---8--8--8---6--4--4--------------------------------|
D|-------------------------------------------------------------|
A|-------------------------------------------------------------|
E|-------------------------------------------------------------|
Asus2 E B E
e|---0--0--0--0--0--0-0-0--0---0--0--0-0--0-0--0--0--0----0--12-12----12-----|
B|--/12-12-12-10-10-9-9-10-10--10⁄9--9⁄7--7⁄5--5-------0-----12----12----12--|
G|-----------------------------------------------------1---------------------|
D|---------------------------------------------------------------------------|
A|---------------------------------------------------------------------------|
E|---------------------------------------------------------------------------|
comments powered by Disqus
Наверх