Аккорды Green Day - Redundant

Добавлено: @romashka
Дата добавления: 16 Марта 2013г.
Рейтинг:
0.0
Просмотров: 251
Транспонировать - +
INTRO
e|-----------------|-------------------|---------------|-----------------|
B|-------2---------|--------2----------|-------2-------|-----------------|
G|-----------2-----|------------2------|----------2----|-----------------|
D|-----------------|-------------------|---------------|-4-4-4-4-4-4-4-4-|
A|-----------------|-------------------|---------------|-4-4-4-4-4-4-4-4-|
E|-5---------------|-4/5-4-------------|-2/4-3------3/2|-2-2-2-2-2-2-2-2-|

e|-----------------|-----------------|-----------------|-----------------|
B|-----------------|-----------------|-----------------|-----------------|
G|-4-4-4-4-4-4-4-4-|-7-7-7-7-7-7-7-7-|-----------------|---------7---7---|
D|-4-4-4-4-4-4-4-4-|-7-7-7-7-7-7-7-7-|-7-7-7-7-7-7-7-7-|-7-7-7-7-7---7---|
A|-2-2-2-2-2-2-2-2-|-5-5-5-5-5-5-5-5-|-7-7-7-7-7-7-7-7-|-7-7-7-7-5---5---|
E|-----------------|-----------------|-5-5-5-5-5-5-5-5-|-5-5-5-5---------|

VERSE
e|-----------------|-----------------|-----------------|-----------------|
B|-----------------|-----------------|-----------------|-----------------|
G|-----------------|-7-7-7-7-7-7-7-7-|-------------7---|-----------------|
D|-7-7-7-7-7-7-7-7-|-7-7-7-7-7-7-7-7-|-7-7-7-7-7-7-7---|-7-7-7-7-7-7-7-7-|
A|-7-7-7-7-7-7-7-7-|-5-5-5-5-5-5-5-5-|-7-7-7-7-7-7-5---|-7-7-7-7-7-7-7-7-|
E|-5-5-5-5-5-5-5-5-|-----------------|-5-5-5-5-5-5-----|-5-5-5-5-5-5-5-5-|

e|-----------------|-----------------|-----------------|-----------------|
B|-----------------|-----------------|-----------------|-----------------|
G|-----------------|-7-7-7-7-7-7-7-7-|-----------------|-----------------|
D|-7-7-7-7-7-7-7-7-|-7-7-7-7-7-7-7-7-|-2-2-2-2-2-2-2-2-|-2-2-2-2-5---5---|
A|-7-7-7-7-7-7-7-7-|-5-5-5-5-5-5-5-5-|-2-2-2-2-2-2-2-2-|-2-2-2-2-5---5---|
E|-5-5-5-5-5-5-5-5-|-----------------|-0-0-0-0-0-0-0-0-|-0-0-0-0-3---3---|

e|-----------------|-----------------|-----------------|-----------------|
B|-----------------|-----------------|-----------------|-----------------|
G|-----------------|-7-7-7-7-7-7-7-7-|-------------7---|-----------------|
D|-7-7-7-7-7-7-7-7-|-7-7-7-7-7-7-7-7-|-7-7-7-7-7-7-7---|-7-7-7-7-7-7-7-7-|
A|-7-7-7-7-7-7-7-7-|-5-5-5-5-5-5-5-5-|-7-7-7-7-7-7-5---|-7-7-7-7-7-7-7-7-|
E|-5-5-5-5-5-5-5-5-|-----------------|-5-5-5-5-5-5-----|-5-5-5-5-5-5-5-5-|

e|-----------------|-----------------|-----------------|-----------------|
B|-----------------|-----------------|-----------------|-----------------|
G|-----------------|-7-7-7-7-7-7-7-7-|-----------------|-----------------|
D|-7-7-7-7-7-7-7-7-|-7-7-7-7-7-7-7-7-|-2-2-2-2-2-2-2-2-|-2-2-2-2-2-2-2-2-|
A|-7-7-7-7-7-7-7-7-|-5-5-5-5-5-5-5-5-|-2-2-2-2-2-2-2-2-|-2-2-2-2-2-2-2-2-|
E|-5-5-5-5-5-5-5-5-|-----------------|-0-0-0-0-0-0-0-0-|-0-0-0-0-0-0-0-0-|

chorus
e|-----------------|-----------------|-----------------|-----------------|
B|-----------------|-----------------|-----------------|-----------------|
G|-----------------|-7-7-7-7-7-7-7-7-|-------------7---|-----------------|
D|-7-7-7-7-7-7-7-7-|-7-7-7-7-7-7-7-7-|-7-7-7-7-7-7-7---|-7-7-7-7-7-7-7-7-|
A|-7-7-7-7-7-7-7-7-|-5-5-5-5-5-5-5-5-|-7-7-7-7-7-7-5---|-7-7-7-7-7-7-7-7-|
E|-5-5-5-5-5-5-5-5-|-----------------|-5-5-5-5-5-5-----|-5-5-5-5-5-5-5-5-|

e|-----------------|-----------------|-----------------|----------------|
B|-----------------|-----------------|-----------------|----------------|
G|-----------------|-4-4-4-4-4-4-4-4-|-----------------|----------------|
D|-4-4-4-4-4-4-4-4-|-4-4-4-4-4-4-4-4-|-2-2-2-2-2-2-2-2-|-2-2-2-2-5--5---|
A|-4-4-4-4-4-4-4-4-|-2-2-2-2-2-2-2-2-|-2-2-2-2-2-2-2-2-|-2-2-2-2-5--5---|
E|-2-2-2-2-2-2-2-2-|-----------------|-0-0-0-0-0-0-0-0-|-0-0-0-0-3--3---|

e|-----------------|-----------------|-----------------|-----------------|
B|-----------------|-----------------|-----------------|-----------------|
G|-----------------|-7-7-7-7-7-7-7-7-|-----------------|-----------------|
D|-7-7-7-7-7-7-7-7-|-7-7-7-7-7-7-7-7-|-7-7-7-7-7-7-7-7-|-7-7-7-7-7-7-7-7-|
A|-7-7-7-7-7-7-7-7-|-5-5-5-5-5-5-5-5-|-7-7-7-7-7-7-7-7-|-7-7-7-7-7-7-7-7-|
E|-5-5-5-5-5-5-5-5-|-----------------|-5-5-5-5-5-5-5-5-|-5-5-5-5-5-5-5-5-|

e|-----------------|-----------------|-----------------|-----------------|
B|-----------------|-----------------|-----------------|-----------------|
G|-----------------|-4-4-4-4-4-4-4-4-|-----------------|-----------------|
D|-4-4-4-4-4-4-4-4-|-4-4-4-4-4-4-4-4-|-2-2-2-2-2-2-2-2-|-2-2-2-2-2-------|
A|-4-4-4-4-4-4-4-4-|-2-2-2-2-2-2-2-2-|-2-2-2-2-2-2-2-2-|-2-2-2-2-2-------|
E|-2-2-2-2-2-2-2-2-|-----------------|-0-0-0-0-0-0-0-0-|-0-0-0-0-0-------|

OUTRO
e|-----------------|-----------------|-----------------|-----------------|
B|-------2---------|--------2--------|-------2---------|-----------------|
G|-----------2-----|------------2----|----------2------|-----------------|
D|-----------------|-----------------|-----------------|-4-4-4-4-4-4-4-4-|
A|-----------------|-----------------|-----------------|-4-4-4-4-4-4-4-4-|
E|-5---------------|-4/5-4-----------|-2/4-3-------3/2-|-2-2-2-2-2-2-2-2-|

e|-----------------|-----------------|-----------------|-----------------|
B|-----------------|-----------------|-----------------|-----------------|
G|-4-4-4-4-4-4-4-4-|-7-7-7-7-7-7-7-7-|-----------------|-----------------|
D|-4-4-4-4-4-4-4-4-|-7-7-7-7-7-7-7-7-|-7-7-7-7-7-7-7-7-|-7-7-7-7---------|
A|-2-2-2-2-2-2-2-2-|-5-5-5-5-5-5-5-5-|-7-7-7-7-7-7-7-7-|-7-7-7-7---------|
E|-----------------|-----------------|-5-5-5-5-5-5-5-5-|-5-5-5-5---------|

Intro
Verse
Intro
Verse
Intro
Verse
Intro
Chorus
Outro
comments powered by Disqus
Наверх