Аккорды Green Day - 16

Добавлено: @romashka
Дата добавления: 16 Марта 2013г.
Рейтинг:
0.0
Просмотров: 300
Транспонировать - +
----------------|-------------------------------------------------------------
----------------|-------------------------------------------------------------
--4-------------|----4xx4-x4-4-x4-4-------------------------------------------
--4---------6---|----4xx4-x4-4-x4-4-6xx6-x6-6-x6-6----------------------------
--2---------6---|----2xx2-x2-2-x2-2-6xx6-x6-6-x6-6----------------------------
------------4---|-------------------4xx4-x4-4-x4-4----------------------------
Intro Verse - repeat as necessary

------------------------------------------------------------------------------
------------------------------------------------------------------------------
------------------------------------------------------------------------------
-4-44444444444444-2-22222222222222-4-44444444444444-2-22222222222222----------
-4-44444444444444-2-22222222222222-4-44444444444444-2-22222222222222----------
-2-22222222222222-0-00000000000000-2-22222222222222-0-00000000000000----------
Chorus

------------------------------------------------------------------------------
------------------------------------------------------------------------------
------------------------------------------------------------------------------
-8-8-10-8---8-8-8-10-8---10---12---13-12-12-12-12-13-12-13-15---12-12-10--12--10
------------------------------------------------------------------------------
------------------------------------------------------------------------------
Solo

------------------------------------------------------------------------------
------------------------------------------------------------------------------
------------------------------------------------------------------------------
-12---8---10---12---13-12-12-12-12-13-12⁄10-10⁄8-7-7-7-8-10-8-7-8-7-8----8-7-7
------------------------------------------------------------------------------
------------------------------------------------------------------------------
Solo

------------------------------------------------------------------------------
------------------------------------------------------------------------------
------------------------------------------------------------------------------
-7-8-10-8-7-8-7-8-------------------------------------------------------------
------------------------------------------------------------------------------
------------------------------------------------------------------------------
Solo

------------------------------------------------------------------------------
------------------------------------------------------------------------------
---------4-----4--------------------------------------------------------------
-2-2-2-2-2-----2--------------------------------------------------------------
-2-2-2-2-2-----2--------------------------------------------------------------
-0-0-0-0----------------------------------------------------------------------
Cota

Intro
Verse
Chorus
Verse x2
Chorus
Solo
Verse x2
Chorus
Cota
comments powered by Disqus
Наверх