Аккорды Green Day - She

Добавлено: @romashka
Дата добавления: 16 Марта 2013г.
Рейтинг:
0.0
Просмотров: 298
Транспонировать - +
E|-----------------------------------------------------------------------------|
B|-----------------------------------------------------------------------------|
G|-----------------------------------------------------------------------------|
D|-----------------------------------------------------------------------------|
A|-4-4-4-4-4-4-4-4-4-4--4-4--4-4-4-4--4-4--(X2)--------------------------------|
E|----------------------------------------------4-4-4-4-4-4-4--2-2-2-2-2-2-2-2-|

pre chorus (this is only played before the first chorus):
E|----------------------------------------|
B|----------------------------------------|
G|----------------------------------------|
D|---2--2--2-2-2-2-2-2-2--4-4-4-4-4-4-4-4-|
A|---2--2--2-2-2-2-2-2-2--4-4-4-4-4-4-4-4-|
E|---0--0--0-0-0-0-0-0-0--2-2-2-2-2-2-2-2-|
P.M: ...............................

chorus:
E|-----------------------------------------------------------------------------|
B|-----------------------------------------------------------------------------|
G|-6--6--6-6-6-6-6-6-6-6-4-4-4-4-4----------6--6--6-6-6-6-6-6-6-6--4--4--4-4-4-|
D|-6--6--6-6-6-6-6-6-6-6-4-4-4-4-4-4-4-4-4--6--6--6-6-6-6-6-6-6-6--4--4--4-4-4-|
A|-4--4--4-4-4-4-4-4-4-4-2-2-2-2-2-4-4-4-4--4--4--4-4-4-4-4-4-4-4--2--2--2-2-2-|
E|---------------------------------2-2-2-2-------------------------------------|

E|-----------------------------------------------------------------------------|
B|-----------------------------------------------------------------------------|
G|------------4--4--4-4-4---------------4--4--4-4-4----------------4--4--4-4-4-|
D|--4--4-4-4--4--4--4-4-4--4--4--4-4-4--4--4--4-4-4---4--4--4-4-4--4--4--4-4-4-|
A|--4--4-4-4--2--2--2-2-2--4--4--4-4-4--2--2--2-2-2---4--4--4-4-4--2--2--2-2-2-|
E|--2--2-2-2---------------2--2--2-2-2----------------2--2--2-2-2--------------|

E|-----------------------------------|
B|-----------------------------------|
G|---------------------6--6--6-6-6-6-|
D|---4--4--4-4-4-4-4---6--6--6-6-6-6-|
A|---4--4--4-4-4-4-4---4--4--4-4-4-4-|
E|---2--2--2-2-2-2-2-----------------|

2nd verse:
E|-----------------------------------------------------------------------------|
B|-----------------------------------------------------------------------------|
G|-------------------6-6-6-6-6-6-6-6-6-4-4-4-4-4-4-4-4-4---------4-------------|
D|-4-4-4-4-4-4-4-4-4-6-6-6-6-6-6-6-6-6-4-4-4-4-4-4-4-4-4-4-4-4-4-4-4-4-4-4-4-4-|
A|-4-4-4-4-4-4-4-4-4-4-4-4-4-4-4-4-4-4-2-2-2-2-2-2-2-2-2-4-4-4-4-2-4-4-4-4-4-4-|
E|-2-2-2-2-2-2-2-2-2-------------------------------------2-2-2-2---2-2-2-2-2-2-|
comments powered by Disqus
Наверх