Аккорды Green Day - Waiting

Добавлено: @romashka
Дата добавления: 16 Марта 2013г.
Рейтинг:
0.0
Просмотров: 222
Транспонировать - +
------------------------------------------------------------------------------
------------------------------------------------------------------------------
-----------------7---7-7---7-7-7-----------------7---7-7---7-7-7--------------
-7---7-7---7-7-7-7---7-7---7-7-7-9---9-9---9-9-9-7---7-7---7-7-7--------------
-7---7-7---7-7-7-5---5-5---5-5-5-9---9-9---9-9-9-5---5-5---5-5-5--------------
-5---5-5---5-5-5-----------------7---7-7---7-7-7------------------------------
Play this 8x, first 2 times unplugged main riff

------------------------------------------------------------------------------
------------------------------------------------------------------------------
------------------------------------------------------------------------------
-4---4-4---4-4-4-3---3-3---3-3-3-2---2-2---2-2-2-9-9-9-9-9-9-9-9--------------
-4---4-4---4-4-4-3---3-3---3-3-3-2---2-2---2-2-2-9-9-9-9-9-9-9-9--------------
-2---2-2---2-2-2-1---1-1---1-1-1-0---0-0---0-0-0-7-7-7-7-7-7-7-7--------------
main riff2

------------------------------------------------------------------------------
------------------------------------------------------------------------------
-7-7-7-------7-7-7------------------------------------------------------------
-7-7-7-7-7-7-7-7-7------------------------------------------------------------
-5-5-5-7-7-7-5-5-5------------------------------------------------------------
-------5-5-5------------------------------------------------------------------
(pause while drum goes)

------------------------------------------------------------------------------
------------------------------------------------------------------------------
-----------------7---7-7---7-7-7-----------------7---7-7---7-7-7--------------
-7---7-7---7-7-7-7---7-7---7-7-7-9---9-9---9-9-9-7---7-7---7-7-7--------------
-7---7-7---7-7-7-5---5-5---5-5-5-9---9-9---9-9-9-5---5-5---5-5-5--------------
-5---5-5---5-5-5-----------------7---7-7---7-7-7------------------------------
Play this 4x

------------------------------------------------------------------------------
------------------------------------------------------------------------------
------------------------------------------------------------------------------
-4---4-4---4-4-4-3---3-3---3-3-3-2---2-2---2-2-2-9-9-9-9-9-9-9-9--------------
-4---4-4---4-4-4-3---3-3---3-3-3-2---2-2---2-2-2-9-9-9-9-9-9-9-9--------------
-2---2-2---2-2-2-1---1-1---1-1-1-0---0-0---0-0-0-7-7-7-7-7-7-7-7--------------


-----------------------------------|------------------------------------------
-----------------------------------|------------------------------------------
-7-7-7-------7-7-7-------7---7-----|-7-7-7-------7-7-7-9-9-9-9-9-9-9-9--------
-7-7-7-7-7-7-7-7-7-7-7-7-7-7-7-7---|-7-7-7-7-7-7-7-7-7-9-9-9-9-9-9-9-9--------
-5-5-5-7-7-7-5-5-5-7-7-7-5-7-5-7---|-5-5-5-7-7-7-5-5-5-7-7-7-7-7-7-7-7--------
-------5-5-5-------5-5-5---5---5---|-------5-5-5------------------------------
Play this section 3x, then go on | Play this section only once

------------------------------------------------------------------------------
--------------------------------------------------------------7---------------
-9/6-6---6-7-6-----9/6-6---6-7-6--------------6-7-6-------8-----8-------------
-------9-------9---------9-------9---11/7-7-9-------9---9---9-----9/7-7-------
------------------------------------------------------------------------------
------------------------------------------------------------------------------
Play main riff 2x in background

-------9----12-9-------------9----12-9------------9----12-9-------------------
----10---10------10-------10---10------10------10---10------10----------------
-11-----------------11-10-----------------10-9-----------------9-8/4----------
------------------------------------------------------------------------------
------------------------------------------------------------------------------
------------------------------------------------------------------------------
Play main riff2 once in background

-----------------------------------|------------------------------------------
-----------------------------------|------------------------------------------
-7-7-7-------7-7-7-------7---7-----|-7-7-7-------7-7-7-9-9-9-9-9-9-9-9--------
-7-7-7-7-7-7-7-7-7-7-7-7-7-7-7-7---|-7-7-7-7-7-7-7-7-7-9-9-9-9-9-9-9-9--------
-5-5-5-7-7-7-5-5-5-7-7-7-5-7-5-7---|-5-5-5-7-7-7-5-5-5-7-7-7-7-7-7-7-7--------
-------5-5-5-------5-5-5---5---5---|-------5-5-5------------------------------
Play this section 3x, then go on | Play this section only once

---------------------------------------------------|--------------------------
---------------------------------------------------|--------------------------
-----------------7---7-7---7-7-7-----------------7-|-7-7---7-7-7--------------
-7---7-7---7-7-7-7---7-7---7-7-7-9---9-9---9-9-9-7-|-7-7---7-7-7--------------
-7---7-7---7-7-7-5---5-5---5-5-5-9---9-9---9-9-9-5-|-5-5---5-5-5--------------
-5---5-5---5-5-5-----------------7---7-7---7-7-7---|--------------------------
Play this 3 times unplugged | Only play the 1st 2x

---------------------------------------------------|--------------------------
---------------------------------------------------|--------------------------
-----------------7---7-7---7-7-7-----------------7-|-7-7---7-7-7--------------
-7---7-7---7-7-7-7---7-7---7-7-7-9---9-9---9-9-9-7-|-7-7---7-7-7--------------
-7---7-7---7-7-7-5---5-5---5-5-5-9---9-9---9-9-9-5-|-5-5---5-5-5--------------
-5---5-5---5-5-5-----------------7---7-7---7-7-7---|--------------------------
Play this 4 times | Only play the 1st 3x

------------------------------------------------------------------------------
------------------------------------------------------------------------------
------------------------------------------------------------------------------
------------------------------------------------------------------------------
------------------------------------------------------------------------------
------------------------------------------------------------------------------
comments powered by Disqus
Наверх