Аккорды Green Day - Rest

Добавлено: @romashka
Дата добавления: 05 Мая 2014г.
Рейтинг:
0.0
Просмотров: 170
Транспонировать - +
Intro
e|----------------------------------------------------------|
B|----------------------------------------------------------|
G|-----0----------0----------0----------0-----0-|
D|---0-------0------0-------0------0-------0------0-----0---|
A|----------------------------------------------------------|
E|-3-----------3--3-----------3--3-----------3--1-----1-----|

Verse
e|------------------------------------------------------------|
B|------------------------------------------------------------|
G|-----0----------0----------0----------0-----|
D|---0-------0------0-------0------0-------0------0-------0---|
A|------------------------------------------------------------|
E|-3-----------3--3-----------3--3-----------3--3-----------3-|

e ------------------------------------------------------------|
B ------------------------------------------------------------|
G -----0----------0----------0---------0------|
D ---0-------0------0-------0------0-------0-----0-------0----|
A ------------------------------------------------------------|
E -1-----------1--1-----------1--3-----------3--3----------3--|

Bridge
e|------------------------------------------------------------|
B|------------------------------------------------------------|
G|-----0----------0----------0----------0-----|
D|---0-------0------0-------0------0-------0------0-------0---|
A|------------------------------------------------------------|
E|-6-----------6--5-----------5--6-----------6--5-----------5-|

e --------------------------------------------------------------|
B --------------------------------------------------------------|
G -----0----------0----------0-----------0------|
D ---0-------0------0-------0------0-------0-------0-------0----|
A --------------------------------------------------------------|
E -6-----------6--5-----------5--8-----------8--10-----------10-|

Lyrics:

Hey can you hear me? I'm calling your name
Hello? Or is this good bye?
The gleam in your eyes it troubles my brain
Will I, see it again?

So I can rest my head

Angel! (Angel)
Dancing away as all of my thoughts get rearranged
Angel! (Angel)
Turning away just when things seem to have changed

So I can rest my head
comments powered by Disqus
Наверх