Аккорды Green Day - Stuart and the Ave

Добавлено: @romashka
Дата добавления: 05 Мая 2014г.
Рейтинг:
0.0
Просмотров: 178
Транспонировать - +
intro
         pm______________|
|------------------------|
|------------------------|
|-7--------7-7-7-7-7-7-7-|
|-7--------7-7-7-7-7-7-7-|
|-5--------5-5-5-5-5-5-5-|
|------------------------|

verse

|-----------------------------------------------------------------
|-----------------------------------------------------------------
|-7-7-7-7-7-7-7-7---------------------------------7-7-7-7-7-7-7-7-
|-7-7-7-7-7-7-7-7-2-2-2-2-2-2-2-2-5-5-5-5-5-5-5-5-7-7-7-7-7-7-7-7-
|-5-5-5-5-5-5-5-5-2-2-2-2-2-2-2-2-5-5-5-5-5-5-5-5-5-5-5-5-5-5-5-5-
|-----------------0-0-0-0-0-0-0-0-3-3-3-3-3-3-3-3-----------------

 -----------------------------------------------------------------|
 -----------------------------------------------------------------|
 -7-7-7-7-7-7-7-7-------------------------------------------------|
 -7-7-7-7-7-7-7-7-2-2-2-2-2-2-2-2-5-5-5-5-5-5-5-5-7-7-7-7-7-7-7-7-|
 -5-5-5-5-5-5-5-5-2-2-2-2-2-2-2-2-5-5-5-5-5-5-5-5-7-7-7-7-7-7-7-7-|
 -----------------0-0-0-0-0-0-0-0-3-3-3-3-3-3-3-3-5-5-5-5-5-5-5-5-|

chorus

|-------------------------|
|-------------------------|
|-4-4-4-4-4-4-------------|
|-4-4-4-4-4-4-5-5-5-5-5-5-|
|-2-2-2-2-2-2-5-5-5-5-5-5-|
|-------------3-3-3-3-3-3-|
 
|-----------------------------------------------------------------|
|-----------------------------------------------------------------|
|-7-7-7-7-7-7-------------------------------7-7-7-7-7-------------|
|-7-7-7-7-7-7-2-2-2-2-2-2-5-5-5-5-5-5-------7-7-7-7-7-7-7-7-7-7-7-|
|-5-5-5-5-5-5-2-2-2-2-2-2-5-5-5-5-5-5-------5-5-5-5-5-7-7-7-7-7-7-|
|-------------0-0-0-0-0-0-3-3-3-3-3-3-----------------5-5-5-5-5-5-|






comments powered by Disqus
Наверх