Аккорды Green Day - Sweet Children

Добавлено: @romashka
Дата добавления: 05 Мая 2014г.
Рейтинг:
0.0
Просмотров: 204
Транспонировать - +
Intro/Verse/Bridge:
     Eb5   Ab5  Db5
e----------------------|
b----------------------|
g---8-8-888-----6-66---|
D---8-8-888-666-6-66---|
A---6-6-666-666-4-44---|
E-----------444--------|

Inro x4 (w/ feedback)

Pick scrapes on E and A strings...

Verse x8

Chorus:
    A#5   D Db5 Ab5
e--------2-2----------|
b--------3-3----------|
g--------2-2-66-------|
D---8888-0-0-66-6-6---|
A---8888-x-x-44-6-6---|
E---6666-x-x----4-4---|

Chorus x4

Bridge x2

Verse x8

Chorus x4

Interlude:
      A#5 Ab5 Db5
e--------------------|
b--------------------|
g-------------6-66---|
D---8-8888-66-6-66---|
A---8-8888-66-4-44---|
E---6-6666-44--------|

Interlude x4

Chorus x8

Outro:
     Ab5
e------------|
b------------|
g------------|
D---6~~~-6---|
A---6~~~-6---|
E---4~~~-4---|






comments powered by Disqus
Наверх