Аккорды Green Day - Why Do You Want Him

Добавлено: @romashka
Дата добавления: 05 Мая 2014г.
Рейтинг:
0.0
Просмотров: 225
Транспонировать - +
INTRO & CHORUS:
e------------------------------------------------------
B------------------------------------------------------
G--8-8-8-8-8-8--5-5-5-5-5-5----------------------------
D--8-8-8-8-8-8--5-5-5-5-5-5--6-6-6-6-6-6--8-8-8-8-8-8--
A--6-6-6-6-6-6--3-3-3-3-3-3--6-6-6-6-6-6--8-8-8-8-8-8--
E----------------------------4-4-4-4-4-4--6-6-6-6-6-6--

VERSES:
e------------------------------------------------------
B------------------------------------------------------
G------------------------------------------------------
D--2-2-2-2-2-2--7-7-7-7-7-7--4-4-4-4-4-4--5-5-5-5-5-5--
A--2-2-2-2-2-2--7-7-7-7-7-7--4-4-4-4-4-4--5-5-5-5-5-5--
E--0-0-0-0-0-0--5-5-5-5-5-5--2-2-2-2-2-2--3-3-3-3-3-3--

BRIDGE:
e---------------------
B---------------------
G------4--------------
D--5-7-4-7-5-5-5-5-5--
A--5-7-2-7-5-5-5-5-5--
E--3-5---5-3-3-3-3-3--

intro x2
verse x6
chorus x2
verse x6
chorus x4
bridge x4
solo
chorus x4

comments powered by Disqus
Наверх