Аккорды Green Day - 21st Century Breakdown

Добавлено: @romashka
Дата добавления: 08 Мая 2014г.
Рейтинг:
0.0
Просмотров: 307
Транспонировать - +
Verse/Chorus
G|---------------------------------------------------------------------------|
D|------------------------------------------------6-4-3h4p4------------------|
A|-4--4-4---4-4-4-----------------4--4-4---4-4-4-------------6--4------------|
E|----------------4-4-4-2--2-2-----------------------------------------------|

Pre Chorus
G|---------------------------------------------------------------------------|
D|---------------------------------------------------------------------------|
A|-1-1-1-1-1-1-1-1-----------------1-1-1-1-1-1-1-1---------------------------|
E|-----------------2-2-2-2-2-2-2-2-----------------2-2-2--2--4---------------|

After 2nd Chorus        we are the class of.....
G|---------------------------------------------------------------------------|
D|---------------------------------------------------------------------------|
A|----------4--------------4--------------4----------------------------------|
E|--4-(x3)----4--------------4----------------4-------------4-4-4-4-4-4-4-4--|

G|-----------------------------------------------------------------------------|
D|--------------------6--------------------------------------------------------|
A|--4-4444-4444-4444------(x4)-------------------------------------------------|
E|-----------------------------------------------------------------------------|

Verse
G|---------------------------------------------------------------------------|
D|---------------------------------------------------------------------------|
A|--4-4444-4444-4444--------4--4-4444-4444-----------------------------------|
E|--------------------2--4-----------------444444444444----------------------|
repeat as neccassary

  i praise liberty.....
G|---------------------------------------------------------------------------|
D|---------------------------------------------------------------------------|
A|--4-44-44-44-4------------4-44-44-44-4-------------4-44-44-44-4------------|
E|--------------4-44-44-44-4------------44-44-44-44-4------------4-44-44-44--|
   Dont cross the line....
G|---------------------------------------------------------------------------|
D|---------------------------------------------------------------------------|
A|------------4-------4-------4----------------------------------------------|
E|--22-44--22--4---22---4--22---4~----4~----4~----4~----4~----4~---4~---4~---|

G|-----------------------------------------------------------------------------|
D|-----------------------------------------------------------------------------|
A|--4----4-3-----3-1------1/11-----11-9-------9-0-----0-4----4-4-4---4-(x2)----|
E|-----------------------------------------------------------------------------|

G|---------------------------------------------------------------------------|
D|---------------------------------------------------------------------------|
A|--4----4-3------3----------------------------------------------------------|
E|------------------6-----6-4-----4-2-----2/5--------------------------------|
comments powered by Disqus
Наверх