Аккорды Green Day - Dancing With Myself

Добавлено: @romashka
Дата добавления: 10 Мая 2014г.
Рейтинг:
0.0
Просмотров: 201
Транспонировать - +
INTRO 
E/---------------------  
B/----4-4-4-3-5-6-4---- 
D/--------------------- 
D/--------------------- 
A/---------------------x2 
E/--------------------- 

FOR THE VERSE HE JUST PALM MUTES THESE 


E/--------------------- 
B/--------------------- 
G/--------------------- 
D/-3-3-3-3-3--5-5-5-5-5--------- 
A/-3-3-3-3-3--5-5-5-5-5-------- 
E/-1-1-1-1-1--3-3-3-3-3---------- 
comments powered by Disqus
Наверх