Аккорды Green Day - Drama Queen

Добавлено: @romashka
Дата добавления: 10 Мая 2014г.
Рейтинг:
0.0
Просмотров: 312
Транспонировать - +
intro/verse

  c                em            am                 F                           G
--------------------------11111--------333333333----|
---11------------11111----11111---------------------|
---xx------------22222----22222---------------------|
---22----22------22222----33333---------------------|
3--33--2-22---0-----------33333--------222222222----|
------------------------1-11111------3-333333333----|

----------------------------11111--------333333333----|
---11--------------11111----11111---------------------|
---xx--------------22222----22222---------------------|
---22------22------22222----33333---------------------|
3--33----2-22---0-----------33333--------222222222----|
--------------------------1-11111------3-333333333----|
     shes my dramma queen                 shes gotta have the nekless
--------------------------------11111--------33333------|
---11------------------11111----11111-------------------|
---xx------------------22222----22222-------------------|
---22----------22------22222----33333-------------------|
3--33--------2-22---0-----------33333--------222222-----|
------------------------------1-11111------3-333333-----|
   there goes my dramma  queen,                shes hangin from the neckless
Chorus

       am                          F
------------------1111111-------|
---11111----------1111111-------|
---22222----------2222222-------|
---22222----------3333333-------|
------------------3333333-------|
------------------1111333-------|
       thats when your     bundle of joy

         am               f
-------------1-------|
---11111-----1-------|
---22222-----2-------|
---22223-----3-------|
-------------3-------|
-------------1-------|
is from a magazine
       c                        em                 am              f                            c
--------------------------------11111---------------------------|
---11------------------11111----11111--------11-111111----------|
---xx------------------22222----22222--------xx-xxxxxx----------|
---22----------22------22222----33333--------22-222222----------|
3--33--------2-22---0-----------33333--------33-333333----------|
------------------------------1-11111---------------------------|
comments powered by Disqus
Наверх