Аккорды Green Day - I Don't Wanna Know If Your Lonely

Добавлено: @romashka
Дата добавления: 11 Мая 2014г.
Рейтинг:
0.0
Просмотров: 244
Транспонировать - +
Intro
E|----------------------------------------------------------------||
B|----------------------------------------------------------------||
G|----------4-4-4-4--5-5-5-5--------------------------------------||
D|-2-2-2-2--4-4-4-4--5-5-5-5-5-5-5-5------------------------------||
A|-2-2-2-2--2-2-2-2--3-3-3-3-5-5-5-5------------------------------||
E|-0-0-0-0-------------------3-3-3-2------------------------------||


E|------------------0-0-0-----------------------------------------||
B|------------------5-5-3-0---0-(0)(0)----------------------------||
G|----------4-4-4-4-------4-2-4b-5r-4-----------------------------||
D|-2-2-2-2--4-4-4-4--------------------5-5-5----------------------||
A|-2-2-2-2--2-2-2-2--------------------5-5-5----------------------||
E|-0-0-0-0-----------------------------3-3-2----------------------||

Verse x4
E|----------------------------------------------------------------||
B|----------------------------------------------------------------||
G|----------4-4-4-4--5-5-5-5--------------------------------------||
D|-2-2-2-2--4-4-4-4--5-5-5-5-5-5-5-5------------------------------||
A|-2-2-2-2--2-2-2-2--3-3-3-3-5-5-5-5------------------------------||
E|-0-0-0-0-------------------3-3-3-2------------------------------||

I'm curious to know exactly how you are   
I keep my distance but that distance is too far
It reassures me just to know that you're okay
But I don't want you to go on needing me this way


Chorus x4
E|----------------------------------------------------------------||
B|----------------------------------------------------------------||
G|-4-4-4-4-5-5-5-5-2--2--2--2--2--2-------------------------------||
D|-4-4-4-4-5-5-5-5-2--2--2--2--2--2-------------------------------||
A|-2-2-2-2-3-3-3-3-0--0--0--0--0--0-------------------------------||
E|----------------------------------------------------------------||

And I
Don't wanna know if you are lonely
Don't wanna know if you are less than lonely
Don't wanna know if you are lonely   
Don't wanna know, don't want to know


Verse 2 x4
E|----------------------------------------------------------------||
B|----------------------------------------------------------------||
G|----------4-4-4-4--5-5-5-5--------------------------------------||
D|-2-2-2-2--4-4-4-4--5-5-5-5-5-5-5-5------------------------------||
A|-2-2-2-2--2-2-2-2--3-3-3-3-5-5-5-5------------------------------||
E|-0-0-0-0-------------------3-3-3-2------------------------------||

The day you left me left me feeling oh so bad
Still I'm not sure about all the doubts we had 
From the beginning we both knew it wouldn't last
Decisions have been made, the die has been cast


Chorus x4
E|----------------------------------------------------------------||
B|----------------------------------------------------------------||
G|-4-4-4-4-5-5-5-5-2--2--2--2--2--2-------------------------------||
D|-4-4-4-4-5-5-5-5-2--2--2--2--2--2-------------------------------||
A|-2-2-2-2-3-3-3-3-0--0--0--0--0--0-------------------------------||
E|----------------------------------------------------------------||

And I
Don't wanna know if you are lonely
Don't wanna know if you are less than lonely
Don't wanna know if you are lonely   
Don't wanna know, don't want to know


Interlude
E|----------------------------------------------------------------||
B|----------------------------------------------------------------||
G|----------4-4-4-4--5-5-5-5--------------------------------------||
D|-2-2-2-2--4-4-4-4--5-5-5-5-5-5-5-5------------------------------||
A|-2-2-2-2--2-2-2-2--3-3-3-3-5-5-5-5------------------------------||
E|-0-0-0-0-------------------3-3-3-2------------------------------||


E|------------------0-0-0-----------------------------------------||
B|------------------5-5-3-0---0-(0)(0)----------------------------||
G|----------4-4-4-4-------4-2-4b-5r-4-----------------------------||
D|-2-2-2-2--4-4-4-4--------------------5-5-5----------------------||
A|-2-2-2-2--2-2-2-2--------------------5-5-5----------------------||
E|-0-0-0-0-----------------------------3-3-2----------------------||


E|----------------------------------------------------------------||
B|----------------------------------------------------------------||
G|----------4-4-4-4--5-5-5-5--------------------------------------||
D|-2-2-2-2--4-4-4-4--5-5-5-5-5-5-5-5------------------------------||
A|-2-2-2-2--2-2-2-2--3-3-3-3-5-5-5-5------------------------------||
E|-0-0-0-0-------------------3-3-3-2------------------------------||


E|------------------0-0-0-----------------------------------------||
B|------------------9-9-7-0---0-(0)(0)----------------------------||
G|----------4-4-4-4-------8-6-8b-9r-8-----------------------------||
D|-2-2-2-2--4-4-4-4--------------------5-5-5----------------------||
A|-2-2-2-2--2-2-2-2--------------------5-5-5----------------------||
E|-0-0-0-0-----------------------------3-3-2----------------------||


E|----------------------------------------------------------------||
B|----------------------------------------------------------------||
G|----------------------------------------------------------------||
D|-4-3-4-3-4-3-3-2-3-2-3-2----------------------------------------||
A|-4-3-4-3-4-3-3-2-3-3-3-2----------------------------------------||
E|-2-1-2-1-2-1-1-0-1-0-1-0----------------------------------------||x4

Verse 3 x4
E|----------------------------------------------------------------||
B|----------------------------------------------------------------||
G|----------4-4-4-4--5-5-5-5--------------------------------------||
D|-2-2-2-2--4-4-4-4--5-5-5-5-5-5-5-5------------------------------||
A|-2-2-2-2--2-2-2-2--3-3-3-3-5-5-5-5------------------------------||
E|-0-0-0-0-------------------3-3-3-2------------------------------||

The phone is ringing and the clock says 4 AM
If it's your friends, well I don't wanna hear from them
Please leave your number and a message at the tone  
Or you can just go on and leave me here alone

Chorus x4
E|----------------------------------------------------------------||
B|----------------------------------------------------------------||
G|-4-4-4-4-5-5-5-5-2--2--2--2--2--2-------------------------------||
D|-4-4-4-4-5-5-5-5-2--2--2--2--2--2-------------------------------||
A|-2-2-2-2-3-3-3-3-0--0--0--0--0--0-------------------------------||
E|----------------------------------------------------------------||

And I
Don't wanna know if you are lonely
Don't wanna know if you are less than lonely
Don't wanna know if you are lonely   
Don't wanna know, don't want to know



E|----------------||
B|----------------||
G|-0--------------||
D|-2--------------||
A|-2--------------||
E|-0--------------||

It's All In Order But....Here It Is To Clarify

Intro
Verse
Chorus
Verse 2
Chorus
Interlude
Verse 3
Chorus
End On E5
comments powered by Disqus
Наверх