Аккорды Green Day - I Wanna Be Your Boyfriend

Добавлено: @romashka
Дата добавления: 11 Мая 2014г.
Рейтинг:
0.0
Просмотров: 228
Транспонировать - +
 Intro
                                           x2
||------8-7-------|-------------------------||
||o-8-------8-----|------------------------o||
||------------7---|----9-12-------11-14-----||
||--------------9-|-10------10-12-------12--||
||o---------------|------------------------o||
||----------------|-------------------------||


   Verse
                                            4x
||------8-7-------|-------------------------||
||o-8-------8-----|------------------------o||
||------------7---|----9-12-------11-14-----||
||--------------9-|-10------10-12-------12--||
||o---------------|------------------------o||
||----------------|-------------------------||

Chorus
                                   4x
||----------------|----------------||
||o-8-------------|------5--------o||
||--9--x-x--x-9-9-|-5--x-5--x-5-5--||
||--9--x-x--x-9-9-|-5--x-5--x-5-5--||
||o-7--x-x--x-7-7-|-3--x-3--x-3-3-o||
||----------------|----------------||


Verse

Chorus

End on E5



Lyrics

Hey little girl
i wanna be your boyfriend
Sweet little girl
i wanna be your boyfriend

Do you love me bad
what do you say
Do you love me bad
what can i say
comments powered by Disqus
Наверх