Аккорды Green Day - On The Wagon

Добавлено: @romashka
Дата добавления: 12 Мая 2014г.
Рейтинг:
0.0
Просмотров: 184
Транспонировать - +
Tuning - Standard

       (Intro)
G|  ----------------------------------------------------|
D|  ----------------------------------------------------|
A|  ---------------------------2-22-22-22-22-22-22-22---|
E | -2-22-22-22-22-22-22-22-2---------------------------|

G|  --------------------------------------------------------------|
D|  --------------------------------------------------------------|
A|  --------------4-44-44-44-4-----------------------44-44-44-4---|
E | -2-22-22-22-2--------------2-22-22-22-22-22-22-2--------------|


(Begins At 0:16)

    ("Some Time's It Gets Real Hard.....And I Need Some Kind Of Output")
G|  ----------------------------------------------------|
D|  ----------------------------------------------------|
A|  ---------------------------2-22-22-22-22-22-22-22---|
E | -2-22-22-22-22-22-22-22-2---------------------------|



       ("For An Ego Twice The Size Of My One Inch Mind")
G|  --------------------------------------------------------------|
D|  --------------------------------------------------------------|
A|  -----------------------------4-44-44-44-44-44-44-44-4---------|
E | -2-22-22-22-22-22-22-22-22-2----------------------------------|



       ("So Slap Me On The Hand...Put It Right Back Down My Pants")
G|  ----------------------------------------------------|
D|  ----------------------------------------------------|
A|  ---------------------------2-22-22-22-22-22-22-22---|
E | -2-22-22-22-22-22-22-22-2---------------------------|



      ("Turn Me Right Around...Kick Me In The Ass")
G|  --------------------------------------------------------------|
D|  --------------------------------------------------------------|
A|  --------------4-44-44-44-4------------------------------------|
E | -2-22-22-22-2--------------2-22-22-22-22-22-22-2--------------|




      ("Well Today I Say Sweet Things.....But Tomorrow!")
G|  --------------------------------------------------------------|
D|  --------------------------------------------------------------|
A|  -2-22-22-22-22-22-22-22-----------2------------2--------------|
E | --------------------------2-22-2-----22-2-22-2---2------------|



     ("I'll Be Making Up Excuses...For My Action's Cause It's Been So Long Since")
G|  ---------------------------------------------------------------|
D|  ---------------------------------------------------------------|
A|  -2-22-22-22-22-22-22-22--4-------------------------------------|
E | ---------------------------------------------------------------|



      ("I Have Been In Love.....A Special Kind Of Feeling....")
G|  ----------------------------------------------------|
D|  ----------------------------------------------------|
A|  ---------------------------2-22-22-22-22-22-22-22---|
E | -2-22-22-22-22-22-22-22-2---------------------------|



     ("Guess My Best Excuse, I'm On The Wagon Again...........Ahhhhh HOY!")
G|  ---------------------------------------------------------|
D|  ---------------------------------------------------------|
A|  ------------4----------------------------44-44-44-44-4---|
E | -2-22-22-22-------------2-22-22-22-22-22-----------------|





      (GUITAR SOLO)
G|  ----------------------------------------------------|
D|  ----------------------------------------------------|
A|  ---------------------------2-22-22-22-22-22-22-22---|
E | -2-22-22-22-22-22-22-22-2---------------------------|

G|  --------------------------------------------------------------|
D|  --------------------------------------------------------------|
A|  -----------------------------4-44-44-44-44-44-44-44-4---------|
E | -2-22-22-22-22-22-22-22-22-2----------------------------------|

G|  ----------------------------------------------------|
D|  ----------------------------------------------------|
A|  ---------------------------2-22-22-22-22-22-22-22---|
E | -2-22-22-22-22-22-22-22-2---------------------------|


G|  --------------------------------------------------------------|
D|  --------------------------------------------------------------|
A|  --------------4-44-44-44-4-----------------------44-44-44-4---|
E | -2-22-22-22-2--------------2-22-22-22-22-22-22-2--------------|




Chorus back in at 1:54

      ("Well Today I Say Sweet Things.....But Tomorrow!")
G|  --------------------------------------------------------------|
D|  --------------------------------------------------------------|
A|  -2-22-22-22-22-22-22-22-----------2------------2--------------|
E | --------------------------2-22-2-----22-2-22-2---2------------|



     ("I'll Be Making Up Excuses...For My Action's Cause It's Been So Long Since")
G|  ---------------------------------------------------------------|
D|  ---------------------------------------------------------------|
A|  -2-22-22-22-22-22-22-22--4-------------------------------------|
E | ---------------------------------------------------------------|



      ("I Have Been In Love.....A Special Kind Of Feeling....")
G|  ----------------------------------------------------|
D|  ----------------------------------------------------|
A|  ---------------------------2-22-22-22-22-22-22-22---|
E | -2-22-22-22-22-22-22-22-2---------------------------|




     ("Guess My Best Excuse, I'm On The Wagon Again...")
G|  ---------------------------------------------------------|
D|  ---------------------------------------------------------|
A|  ------------4--------------------------------------------|
E | -2-22-22-22-------------2-22-22-22-22-22-22-22-22-2------|




 ("Well I Got No Real Excuse, I'm On The Wagon Again...")
G|  ------------------------|
D|  ------------------------|
A|  ------------4-----------|
E | -2-22-22-22-------------|


     ("...............HOY!....")
G|  ---------------------------------------------------------|
D|  ---------------------------------------------------------|
A|  ---------------------------------------------------------|
E | -2-22-22-22-22-22-22-22-22-22-22-22-2------2*------------|
comments powered by Disqus
Наверх