Аккорды Green Day - Shoplifter

Добавлено: @romashka
Дата добавления: 14 Мая 2014г.
Рейтинг:
0.0
Просмотров: 218
Транспонировать - +
Chords used:
|  E  |  A  |Bsus4 |C#sus| E5  |
|--0--|--0--|--0--|--0--|--0--|
|--0--|--2--|--0--|--0--|--0--|
|--1--|--2--|--4--|--6--|--9--|
|--2--|--2--|--4--|--6--|--9--|
|--2--|--0--|--2--|--4--|--7--|
|--0--|--x--|--x--|--X--|--X--|



Verse 1:
E                  A     E
Shoplifter, you'll never learn
                    Bsus4
When you commit the crime
E                  A       E
Shoplifter, you're getting burned
                   Bsus4  E
And now you gotta do the time



Verse 2:
E                   A    E
It's a 1 2 3 on the felony
                       Bsus4
Well not everything is free
E                       A       E
Now that you served the community
                   Bsus4  E
It's the life of a petty thief


Chorus:
                   C#sus
Its not considered stealing
                      E5
Unless you're getting caught
                    C#sus
But it isn't called stealing
A                        Bsus4
Tryin' to take something you haven't got


Verse 3:
E                  A     E
Shoplifter, you'll never learn
                      Bsus4
What lies behind your back
E                  A     E
Not a burgler or a bankrobber
             Bsus4 E
just a kleptomaniac


Bridge:
  E       A     E     E       Bsus4
|-0--0----0--0--0--0--0--0----0------0--------|
|-0----0--2-----0-----0----0--0----0---0------|
|-1-------2-----1-----1-------4---------------|
|-2-------2-----2-----2-------4---------------|
|-2-------0-----2-----2-------2---------------|
|-0-------x-----0-----0-------x---------------|

  E       A     E     E       Bsus4  E
|-0--0----0-0---0--0--0--0-------0--0--0--*12-|
|-0----0--2-----0-----0-------------0---------|
|-1-------2-----1-----1-------4-----1---------|
|-2-------2-----2-----2-------4-----2---------|
|-2-------0-----2-----2-------2-----2---------|
|-0-------x-----0-----0-------x-----0---------|


Chorus:
                   C#sus
Its not considered stealing
                      E5
Unless you're getting caught
                    C#sus
But it isn't called stealing
A                        Bsus4
Tryin' to take something you haven't got


Outro:
E                  A     E
Shoplifter, you'll never learn
                    Bsus4
When you commit the crime
E                  A       E
Shoplifter, you're getting burned
                  Bsus4   E
And now you gotta do the time
                  Bsus4   E
And now you gotta do the time
                  Bsus4    E
And now you gotta do some time
comments powered by Disqus
Наверх