Аккорды Green Day - Simpsons Theme

Добавлено: @romashka
Дата добавления: 14 Мая 2014г.
Рейтинг:
0.0
Просмотров: 179
Транспонировать - +
1
G|----------------------------------------------------------------|
D|----------------------------------------------------------------|
A|3-3--2-2-2-22-2-2-22-2-2-22-2-2-22-2-2-22-2-2-22-2-2-22-2-2-2/7-|
E|----------------------------------------------------------------|>2

>2
G|---------------------------------------------------------|
D|---------------------------------------------------------|
A|7-7-7-77-7-7-77-7-7-77-7-7-77-7-7-77-7-7-77-7-7-77-7-070-|
E|---------------------------------------------------------|>3

>3
G|---5-------5-------5-------------------|
D|-2--5----2--5----2--5----2--10(7x)-----|
A|3-3--0543-3--0543-3--0543-3-------10\6-|
E|---------------------------------------|>4

>4
G|--------------------------------------------------------|
D|--------------8------------8------------8---------------|
A|6-6-6-66-6-6-6-6-6-66-6-6-6-6-6-66-6-6-6-66-066666-0207-|
E|--------------------------------------------------------|>5

>5
G|--------------------------------------------------------|
D|--------------------------------------------------------|
A|7-7-77-7-7-77-7-7-77-7-7-77-7-7-77-7-7-77-7-7-77-7-0703-|
E|--------------------------------------------------------|>6

>6(THE END)
G|----------------------------|
D|----------------------------|
A|3-33-03-33-03-303----2-3333-|
E|-----------------2222-------|
comments powered by Disqus
Наверх