Аккорды Green Day - That Girl

Добавлено: @romashka
Дата добавления: 14 Мая 2014г.
Рейтинг:
0.0
Просмотров: 190
Транспонировать - +
Intro:
 E-------2---------------3-------------3---------------3------------|
 B----3----3---------3----3--3-------3--3---3-------3----3---3------|
 G---2-2--2-2------0---0---0-------0--0---0--------0-0-----0--------|
 D--0-----------------------------------------------------      x 2-|
 A----------------3--------------------------------3----------------|
 E-------------------------------3----------------------------------|

Verse 1:
    D          G              Bb     C
   I see her walkin down the street
   D           G                   Bb      C
   And one day she looked straight at me
   F         C                     D
   I felt a shock go right through me
 Drums kick in
Chorus:
   Am            F            G    Bb
  I can't stop thinkin about her
  Am             F       G     Bb
  She's the only one for me
   Dm             Bb              F       Bb
  It happens again and again and again
    Dm           Bb           F     G stop
  I'm not gonna stop thinkin bout

     That girl
  Small Part
  E-----------------------------------------9--------------------------------|
  B--------------------------------------11---11-----------------------------|
  G----11-11--10-10-8-8--11-11-10-10-8-8-------------------------------------|
  D--------------------------------------------------------------------------|
  A--------------------------------------------------------------------------|
  E--------------------------------------------------------------------------|
comments powered by Disqus
Наверх