Аккорды Green Day - Give Me Novacaine

Добавлено: @romashka
Дата добавления: 26 Января 2017г.
Рейтинг:
0.0
Просмотров: 126
Транспонировать - +
 A                F#m              Bm               E  
e|---0-0-0-0-0-0-0-0--2-2-2-2-2-2-2-2--2-2-2-2-2-2-2-2--0-0-0-0-0-0-0-0------| 
B|---2-2-2-2-2-2-2-2--2-2-2-2-2-2-2-2--3-3-3-3-3-3-3-3--0-0-0-0-0-0-0-0------| 
G|---2-2-2-2-2-2-2-2--2-2-2-2-2-2-2-2--4-4-4-4-4-4-4-4--1-1-1-1-1-1-1-1------| 
D|---2-2-2-2-2-2-2-2--4-4-4-4-4-4-4-4--4-4-4-4-4-4-4-4--2-2-2-2-2-2-2-2------|(x4) 
A|---0-0-0-0-0-0-0-0--4-4-4-4-4-4-4-4--2-2-2-2-2-2-2-2--2-2-2-2-2-2-2-2------| 
E|-------------------(2-2-2-2-2-2-2-2)-----------------(0-0-0-0-0-0-0-0)-----| 
 
Pre-Chorus: 
(i think)   distortion  
e|-----------------------------------------|---------------------------------------| 
B|-----------------------------------------|---------------------------------------| 
G|----7-7-7-7-7----------------------------|-7-7-7-7-7-----------------------------| 
D|----7-7-7-7-7--------7-7-7-7-7-7-7-7-7-7-|-7-7-7-7-7--------7-7-7-7-7-7-7-7-7-7--| 
A|---5-5-5-5-5--------7-7-7-7-7-7-7-7-7-7-|-5-5-5-5-5--------7-7-7-7-7-7-7-7-7-7--| 
E|--------------------5-5-5-5-5-5-5-5-5-5-|------------------5-5-5-5-5-5-5-5-5-5--| 
 
Chorus: 
e|---------------------------------------------------------------------------------| 
B|---------------------------------------------------------------------------------| 
G|---7-7-7-7-7-7-7-7-7-7-----------------------4-4-4-4-4-4-4-4-4-4-/--9-9-9-9-9----| 
D|---7-7-7-7-7-7-7-7-7-7--4-4-4-4-4-4-4-4-4-4--4-4-4-4-4-4-4-4-4-4-/--9-9-9-9-9----| 
A|---5-5-5-5-5-5-5-5-5-5--4-4-4-4-4-4-4-4-4-4--2-2-2-2-2-2-2-2-2-2-/--7-7-7-7-7----| 
E|------------------------2-2-2-2-2-2-2-2-2-2--------------------------------------| 
  
Verse 2: (x2)   
clean,   d = stroke down   u = stroke up  
        A                       F#m                     Bm                      E  
e|------0--0-0-0--0-0-0--0-0-0--2--2-2-2--2-2-2--2-2-2--2--2-2-2--2-2-2--2-2-2--0--0-0-0--0-0-0--0-0-0------| 
B|------2--2-2-2--2-2-2--2-2-2--2--2-2-2--2-2-2--2-2-2--3--3-3-3--3-3-3--3-3-3--0--0-0-0--0-0-0--0-0-0------| 
G|------2--2-2-2--2-2-2--2-2-2--2--2-2-2--2-2-2--2-2-2--4--4-4-4--4-4-4--4-4-4--1--1-1-1--1-1-1--1-1-1------| 
D|------2--2-2-2--2-2-2--2-2-2--2--2-2-2--2-2-2--2-2-2--4--4-4-4--4-4-4--4-4-4--2--2-2-2--2-2-2--2-2-2------| 
A|------0--0-0-0--0-0-0--0-0-0--4--4-4-4--4-4-4--4-4-4--2--2-2-2--2-2-2--2-2-2--2--2-2-2--2-2-2--2-2-2------| 
E|------------------------------2--2-2-2--2-2-2--2-2-2--------------------------0--0-0-0--0-0-0--0-0-0------| 
        d dud dud dud 
 
riff played over verse 2    with a slight delay-effect i think  
e|-------------------------------------------------------------------| 
B|--5-/-10~-------10--7~---------7-/-12~-------12-/-9~--------------| 
G|-------------------------------------------------------------------| 
D|-------------------------------------------------------------------| 
A|-------------------------------------------------------------------| 
E|-------------------------------------------------------------------| 
  
Pre-Chorus: 
e|-----------------------------------------|---------------------------------------| 
B|-----------------------------------------|---------------------------------------| 
G|----7-7-7-7-7----------------------------|-7-7-7-7-7-----------------------------| 
D|----7-7-7-7-7--------7-7-7-7-7-7-7-7-7-7-|-7-7-7-7-7--------7-7-7-7-7-7-7-7-7-7--| 
A|---5-5-5-5-5---------7-7-7-7-7-7-7-7-7-7-|-5-5-5-5-5--------7-7-7-7-7-7-7-7-7-7--| 
E|---------------------5-5-5-5-5-5-5-5-5-5-|------------------5-5-5-5-5-5-5-5-5-5--| 
  
Chorus: 
e|---------------------------------------------------------------------------------| 
B|---------------------------------------------------------------------------------| 
G|---7-7-7-7-7-7-7-7-7-7-----------------------4-4-4-4-4-4-4-4-4-4-/--9-9-9-9-9----| 
D|---7-7-7-7-7-7-7-7-7-7--4-4-4-4-4-4-4-4-4-4--4-4-4-4-4-4-4-4-4-4-/--9-9-9-9-9----| 
A|---5-5-5-5-5-5-5-5-5-5--4-4-4-4-4-4-4-4-4-4--2-2-2-2-2-2-2-2-2-2-/--7-7-7-7-7----| 
E|------------------------2-2-2-2-2-2-2-2-2-2--------------------------------------| 
 
Solo: 
(haven't had time to figure it out, if anyone can and wants to mail it, you're welcome)  
e|---------------------------------------|------------------------------------------------| 
B|---------------------------------------|------------------------------------------------| 
G|---------------------------------------|------------------------------------------------| 
D|---------------------------------------|------------------------------------------------|(x3) 
A|--xxxxxxx--7-7-7-7-7-7-7-7-7-7-7-7-7-7-|-4-4-4-4-4-4-4-4-4-4--7-7-7-7-7-7-7-7-7-7-7-7---| 
E|--xxxxxxx--5-5-5-5-5-5-5-5-5-5-5-5-5-5-|-2-2-2-2-2-2-2-2-2-2--5-5-5-5-5-5-5-5-5-5-5-5---| 
                                           ^ 
                                            solo starts here 
 
e|---------------------------------------------------------------------------| 
B|---------------------------------------------------------------------------| 
G|---4-4-4-4-4-4-4-4--9-9-9-9-9--9--9--9--9--9--9--9--9-9-9-9----------------| 
D|---4-4-4-4-4-4-4-4--9-9-9-9-9--9--9--9--9--9--9--9--9-9-9-9----------------| 
A|---2-2-2-2-2-2-2-2--7-7-7-7-7--7--7--7--7--7--7--7--7-7-7-7----------------| 
E|---------------------------------------------------------------------------| 
                                                                             | 
e|---------------------------------------------------------------------------| 
B|--------------------9-9-9-9-10-10-10-10-12-12-12-12-9-9-9-9----------------| 
G|--------------------9-9-9-9-9--9--9--9--9--9--9--9--9-9-9-9----------------|only part 
D|---------------------------------------------------------------------------|figured out 
A|---------------------------------------------------------------------------|for now 
E|---------------------------------------------------------------------------| 
 
Pre-Chorus: 
e|-----------------------------------------|---------------------------------------| 
B|-----------------------------------------|---------------------------------------| 
G|----7-7-7-7-7----------------------------|-7-7-7-7-7-----------------------------| 
D|----7-7-7-7-7--------7-7-7-7-7-7-7-7-7-7-|-7-7-7-7-7--------7-7-7-7-7-7-7-7-7-7--| 
A|---5-5-5-5-5--------7-7-7-7-7-7-7-7-7-7-|-5-5-5-5-5--------7-7-7-7-7-7-7-7-7-7--| 
E|--------------------5-5-5-5-5-5-5-5-5-5-|------------------5-5-5-5-5-5-5-5-5-5--| 
 
Chorus: 
e|---------------------------------------------------------------------------------| 
B|---------------------------------------------------------------------------------| 
G|---7-7-7-7-7-7-7-7-7-7-----------------------4-4-4-4-4-4-4-4-4-4-/--9-9-9-9-9----| 
D|---7-7-7-7-7-7-7-7-7-7--4-4-4-4-4-4-4-4-4-4--4-4-4-4-4-4-4-4-4-4-/--9-9-9-9-9----| 
A|---5-5-5-5-5-5-5-5-5-5--4-4-4-4-4-4-4-4-4-4--2-2-2-2-2-2-2-2-2-2-/--7-7-7-7-7----| 
E|------------------------2-2-2-2-2-2-2-2-2-2--------------------------------------| 
 
Outro: 
(same as intro/verse 1) 
e|---0-0-0-0-0-0-0-0--2-2-2-2-2-2-2-2--2-2-2-2-2-2-2-2--0-0-0-0-0-0-0-0------| 
B|---2-2-2-2-2-2-2-2--2-2-2-2-2-2-2-2--3-3-3-3-3-3-3-3--0-0-0-0-0-0-0-0--2~--| 
G|---2-2-2-2-2-2-2-2--2-2-2-2-2-2-2-2--4-4-4-4-4-4-4-4--1-1-1-1-1-1-1-1--2~--| 
D|---2-2-2-2-2-2-2-2--4-4-4-4-4-4-4-4--4-4-4-4-4-4-4-4--2-2-2-2-2-2-2-2--2~--|(x2) 
A|---0-0-0-0-0-0-0-0--4-4-4-4-4-4-4-4--2-2-2-2-2-2-2-2--2-2-2-2-2-2-2-2--0~--| 
E|-------------------(2-2-2-2-2-2-2-2)-----------------(0-0-0-0-0-0-0-0)-----|
Наверх