Аккорды No Doubt - Don't Speak

Добавлено: @romashka
Дата добавления: 02 Декабря 2021г.
Рейтинг:
0.0
Просмотров: 71
Транспонировать - +
Intro:

E|--------------------------|--------------------------|
B|--4-----4-----4-----4-----|--4-----4-----4-----4-----|
G|--5-----5-----5-----5-----|--5-----5-----5-----5-----|
D|-----5-----5-----5-----5--|-----5-----5-----5-----5--|
A|--------------------------|--------------------------|
E|--------------------------|--------------------------|
 
Verse 1:

E|--------------------------|--------------------------|
B|--4-----4-----4-----4-----|--3-----3-----1-----1-----|
G|--5-----5-----5-----5-----|--3-----3-----1-----1-----|
D|-----5-----5-----5-----5--|-----5-----5-----3-----3--|
A|--------------------------|--------------------------|
E|--------------------------|--------------------------|
   You and me              We used to be together     


E|--------------------------|--------------------------|
B|--3-----3-----3-----3-----|--1-----1-----3-----3-----|
G|--3-----3-----3-----3-----|--1-----1-----3-----3-----|
D|-----3-----3-----5-----5--|-----3-----3-----3-----3--|
A|--------------------------|--------------------------|
E|--------------------------|--------------------------|
   Every day together         Always


E|--------------------------|--------------------------|
B|--4-----4-----3-----3-----|--1-----1-----3-----3-----|
G|--5-----5-----3-----3-----|--1-----1-----3-----3-----|
D|-----5-----5-----5-----5--|-----3-----3-----3-----3--|
A|--------------------------|--------------------------|
E|--------------------------|--------------------------|
 I really feel       That I'm losing my best friend


E|--------------------------|--------------------------|
B|--3-----3-----4-----4-----|--1-----1-----3-----3-----|
G|--3-----3-----5-----5-----|--1-----1-----3-----3-----|
D|-----5-----5-----5-----5--|-----3-----3-----3-----3--|
A|--------------------------|--------------------------|
E|--------------------------|--------------------------|
 I can't believe this could be The end


E|--------------------------|--------------------------|
B|--4-----4-----3-----3-----|--1-----1-----3-----3-----|
G|--5-----5-----3-----3-----|--1-----1-----3-----3-----|
D|-----5-----5-----5-----5--|-----3-----3-----3-----3--|
A|--------------------------|--------------------------|
E|--------------------------|--------------------------|
 It looks as though           You're letting go


E|-------------------------------8----|
B|----8-----8-----6-----6--------8----|
G|----8-----8-----7-----7--------9----|
D|-------8-----8-----8-----8----10----|
A|------------------------------10----|
E|------------------------------------|
And if it's real, Well I don't want to know


Chorus:

 Fm  
Don`t speak  
  Bbm                   Eb  
I know just what you`re saying  
 C                Bbm  
So please stop explaining  
      C                 Fm    Bbm C  
Don`t tell me 'cause it hurts  
 Fm  
Don`t speak  
 Bbm               Eb  
I know what you`re thinking  
 C                Bbm  
I don`t need your reasons  
      C                 Fm    C# Eb  
Don`t tell me 'cause it hurts  


Verse 2:

E|--------------------------|--------------------------|
B|--4-----4-----4-----4-----|--3-----3-----1-----1-----|
G|--5-----5-----5-----5-----|--3-----3-----1-----1-----|
D|-----5-----5-----5-----5--|-----5-----5-----3-----3--|
A|--------------------------|--------------------------|
E|--------------------------|--------------------------|
Our memories                  They can be inviting  


E|--------------------------|--------------------------|
B|--3-----3-----3-----3-----|--1-----1-----3-----3-----|
G|--3-----3-----3-----3-----|--1-----1-----3-----3-----|
D|-----3-----3-----5-----5--|-----3-----3-----3-----3--|
A|--------------------------|--------------------------|
E|--------------------------|--------------------------|
But some are altogether mighty frightening


Cm    Gm   Fm           Bb
As we die, both you and I
        Eb         Bb              C
With my head in my hands I sit and cry



Chorus:

 Fm  
Don`t speak  
  Bbm                   Eb  
I know just what you`re saying  
 C                Bbm  
So please stop explaining  
      C                 Fm          Bbm C  
Don`t tell me 'cause it hurts... No no no  
 Fm  
Don`t speak  
 Bbm               Eb  
I know what you`re thinking  
    C                 Bbm  
And I don`t need your reasons  
      C                       
Don`t tell me 'cause it hurts 
E|------------------------------------|
B|------------------------------------|
G|-----------------------10--8--5-----|
D|-----------------------10--8--5--6--|
A|------------------------8--6--3--6--|
E|---------------------------------4--|


C#       G#  
It`s all ending  
         B       F#                      
I gotta stop pretending who we are
E|------------------------------------------------------|
B|---------------------------------------------------4--|
G|------------------------------6--6--6-----6-6-6-6--5--|
D|------------------------------7--7--7-----6-6-6-6--6--|
A|------------------------------0--4--6-----6-6-6-6--6--|
E|------------------------------------------4-4-4-4--4--|


Solo: Cm Gm Fm Bb
      Cm Gm Fm Bb
      Cm Gm Fm Bb
      Gm Cm Fm


Verse:

E|--------------------------|--------------------------|
B|--4-----4-----3-----3-----|--1-----1-----3-----3-----|
G|--5-----5-----3-----3-----|--1-----1-----3-----3-----|
D|-----5-----5-----5-----5--|-----3-----3-----3-----3--|
A|--------------------------|--------------------------|
E|--------------------------|--------------------------|
   You and me                 I can see us dying...


E|-------------------|-------------------|
B|-------------------|-------------------|
G|-------------------|-------------------|
D|--3-3-3-3-3-3-3-3--|--8-8-8-8-8-8-8-8--|
A|--3-3-3-3-3-3-3-3--|--8-8-8-8-8-8-8-8--|
E|--1-1-1-1-1-1-1-1--|--6-6-6-6-6-6-6-6--|
   Aren't we?


Chorus:

 Fm  
Don`t speak  
  Bbm                   Eb  
I know just what you`re saying  
 C                Bbm  
So please stop explaining  
      C                 Fm       Bbm C  
Don`t tell me 'cause it hurts... No no  
 Fm  
Don`t speak  
 Bbm               Eb  
I know what you`re thinking  
    C                 Bbm  
And I don`t need your reasons  
      C                 Fm
Don`t tell me 'cause it hurts  
      Bbm      C        Fm
Don`t tell me 'cause it hurts  
  Bbm                   Eb  
I know what you`re saying  
  C                Bbm  
So please stop explaining  
 C  
Don`t speak  
 Fm  
Don`t speak  
 Bbm     C   Fm 
Don`t speak  Oh
 Bbm               Eb
I know what you're thinkin'
    C                 Bbm
And I don't need your reasons
              C                   Fm
I know you're good, I know you're good
              Bbm  C     Fm
I know you're real good, oh
 Bbm            Eb
La, la, la, la, la, la
 C              Bbm
La, la, la, la, la, la
 C     Fm     Bbm  C
Don't, don't, ooh, ooh


 Fm         Bbm
Hush, hush, darling
 Eb         C
Hush, hush, darling
 Bbm
Hush, hush
      C                 Fm     Bbm C
Don't tell me 'cause it hurts

Repeat (fading)
Наверх