Аккорды Казённый унитаз - Толчонок

Добавлено: @romashka
Дата добавления: 14 Января 2022г.
Рейтинг:
0.0
Просмотров: 211
Транспонировать - +
[Интро]
G D Am Em (x2)
Em

[Куплет 1]:
Em                 D
Резкий запах за привычку,
Am                     Em
Тряпки, швабры с малых лет,
Em                   D
Сам себе на жизнь добытчик -
Am             Em
Мальчик моет туалет

[Припев]:
G               D
Это всё что он умеет,
Am              Em
Туалет как целый мир,
G               D
Ни о чем и не жалеет,
Am          Em
Вымываючи сортир


[Проигрыш]:
G D Am Em (x2)
Em

[Куплет 2]:
Em                 D
Злых ровесников, бежавший,
Am               Em
Сломя голову, от них,
Em                      D
Тряпки, швабры в руки взявший,
Am               Em
Безупречно мыл сортир

[Припев]:
G               D
Это всё что он умеет,
Am              Em
Туалет как целый мир,
G               D
Ни о чем и не жалеет,
Am          Em
Вымываючи сортир

[Соло]:
Лид-гитара:
   1                         2
e-|-------------------------|-------------------------|
B-|-------------------------|-------------------------|
G-|-12-12-12-12-12-12-12-12-|-11-11-11-11-11-11-11-11-|
D-|-12-12-12-12-12-12-12-12-|-11-11-11-11-11-11-12-11-|
A-|-10-10-10-10-10-10-10-10-|-9--9--9--9--9--9--10-9--|
E-|-------------------------|-------------------------|

   3                         4
--|-------------------------|-------------------------|
--|-------------------------|-------------------------|
--|-9--9--9--9--9--9--9--12-|-9--9--9--9--9--9--9--11-|
--|-9--9--9--9--9--9--9--12-|-9--9--9--9--9--9--9--11-|
--|-7--7--7--7--7--7--7--10-|-7--7--7--7--7--7--7--9--|
--|-------------------------|-------------------------|

   5                         6
--|-------------------------|-------------------------|
--|-------------------------|-------------------------|
--|-12-12-12-12-12-12-12-16-|-14-14-14-14-14-14-12-11-|
--|-12-12-12-12-12-12-12-16-|-14-14-14-14-14-14-12-11-|
--|-10-10-10-10-10-10-10-14-|-12-12-12-12-12-12-10-9--|
--|-------------------------|-------------------------|

   7                         8
--|-------------------------|-------------------------||
--|-------------------------|-------------------------||
--|-9--9--9--9--9--9--9--12-|-9--9--9--9--9--9--9--9--||
--|-9--9--9--9--9--9--9--12-|-9--9--9--9--9--9--9--9--||
--|-7--7--7--7--7--7--7--10-|-7--7--7--7--7--7--7--7--||
--|-------------------------|-------------------------||

Ритм-гитара:
G D Am Em (x2)

[Проигрыш]:
G D Am Em (x2)

[Куплет 3]:
Em                  D
Тридцать лет уже проходит,
Am               Em
Он по прежнему ребёнок,
Em               D
В идеале сортир моет,
Am               Em
Все зовут его Толчонок


[Припев]:
G               D
Это всё что он умеет,
Am              Em
Туалет как целый мир,
G               D
Ни о чем и не жалеет,
Am          Em
Вымываючи сортир
Em                  D
Тридцать лет уже проходит,
Am               Em
Он по прежнему ребёнок,
Em               D
В идеале сортир моет,

[Кода]:
Am               Em
Все зовут его Толчонок...
*Всхлипы* 

[Интро], [Припев], [Проигрыш], [Соло], [Куплет 2] – Бой "↓↓↓↓" (x2 каждый аккорд)
[Куплет 1], [Куплет 3] – Перебор Б-3-1-2 (x2 каждый аккорд)
[Кода] – Аккорды играются по одному разу 
Наверх