Аккорды Казённый унитаз - Пожарный говновоз

Добавлено: @romashka
Дата добавления: 28 Мая 2022г.
Рейтинг:
0.0
Просмотров: 72
Транспонировать - +
[Соло на бас-гитаре]:
a-0--0----0--7--7----7--8--8----8--7--7-|
e---------------------------------------| x4

Туши моё пламя говном!

[Вступление]: Am | Em | F | Em x4

Am
Средь нас герои не перевелись
F                     Em
Конфеты из говна, материалы из "Супер-Дрись"
Am
Если пожар, то его ликвидатор
F                      Em
Лошадь из дренажной мой ассенизатор

Am   Em      Am   F      Am
Тушит пожар мой говновоз
 Em       F      Em       Am
Мощной струёй со шланга понос
 Em      Am    F     Am
Пахнет огонь и идёт пар
 Em        F    Em
А мой говновоз тушит пожар

[Проигрыш]: Am | Em | F | Em x4

Am
С пожаром бороться он не зассал
F             Em
Мощно своё дерьмо насосал
Am
Он ничего не ломает, не рушит
F              Em
Просто говном пламя потушит

Am   Em      Am   F      Am
Тушит пожар мой говновоз
 Em       F      Em       Am
Мощной струёй со шланга понос
 Em      Am    F     Am
Пахнет огонь и идёт пар
 Em        F    Em
А мой говновоз тушит пожар

[Проигрыш]: Am
        Am | Em | F | Em x8

Am
Бочка с говном, шланга напор
F             Em
Рубит пламя как ветки топор
Am
Герой народа, смерти новатор
F                  Em
Главный пожарный и ассенизатор

[Проигрыш]: Am | Em | F | Em x4

Говном ты огонь потушил!

[Соло]:
d-------------------------------------------------------------|
a-0---0---0--0--0---3---3---3--3--3---8---8---8--8--8---8---8-|
e-------------------------------------------------------------|

О-о, давай!

[Соло]:
d------0-2---0-2-3---2-0-2----|
a-0--0----------------------3-|
e-----------------------------|

d------0-2---0-2-3---2-0-2----|
a-0--0------------------------|
e-----------------------------|

d------0-2---0-2-3---2-0-2----|
a-0--0----------------------3-|
e-----------------------------|

d-----0--2--3---2--3--7-------|
a-0---------------------------|
e-----------------------------|


 Am   Em      Am   F      Am
Тушит пожар мой говновоз
 Em       F      Em       Am
Мощной струёй со шланга понос
 Em      Am    F     Am
Пахнет огонь и идёт пар
 Em        F    Em
А мой говновоз 

Am   Em      Am   F      Am
Тушит пожар мой говновоз
 Em       F      Em       Am
Мощной струёй со шланга понос
 Em      Am    F     Am
Пахнет огонь и идёт пар
 Em        F    Em
А мой говновоз тушит пожар

Am   Em      Am   F      Am
Тушит пожар мой говновоз
 Em       F      Em       Am
Мощной струёй со шланга понос
 Em      Am    F     Am
Пахнет огонь и идёт пар
 Em        F    Em      Am
А мой говновоз тушит пожар 
Наверх