Аккорды Казённый унитаз - Жёлтый снег

Добавлено: @romashka
Дата добавления: 15 Января 2023г.
Рейтинг:
0.0
Просмотров: 125
Транспонировать - +
[Вступление]:
Am F C E x2

[Куплет 1]:
Am              F
Жёлтой краской на снегу
C         E
Я рисую слово "Хуй"
Am            F
Ты его в рот не бери
C         E
И тем более не жуй
Am              F
Нет, не хуй, а жёлтый снег
C              E
Не бери в рот никогда
Am         F
Неприятный он на вкус
C            E
И противный шо пизда

[Припев]:
Am F
  Жёлтый снег
C         E
Это не закуска
Am           F
Жёлтой краскою струя
C         G
Рисует искусство
Am      F
Снег коричневый
C          E
Он не шоколадка
Am       F
Если и его ты съешь
C            E
То будет несладко

[Проигрыш]:
Am F | C E x2


[Куплет 2]:
Am           F
Мои кисти – писька, жопа
C             E
Цвет коричневый беру
Am        F
Шоколадного оттенка
C           G
Я картинку бурую
Am       F
Нарисую на снегу
C            E
Из дерьмища полотно
Am             F
Там нассу, а что в итоге
C          G
А моча съела говно

[Припев]:
Am F
  Жёлтый снег
C         E
Это не закуска
Am           F
Жёлтой краскою струя
C         G
Рисует искусство
Am      F
Снег коричневый
C          E
Он не шоколадка
Am       F
Если и его ты съешь
C            E
То будет несладко

[Проигрыш]: (2 раза)
Am F C E
Am F C G

[Припев]: (2 раза)
Am F
  Жёлтый снег
C         E
Это не закуска
Am           F
Жёлтой краскою струя
C         G
Рисует искусство
Am      F
Снег коричневый
C          E
Он не шоколадка
Am       F
Если и его ты съешь
C            E
То будет несладко


[Кода]:
Am F C E
Am F C G
Am F         C E
  Жёлтый снег
Am F C G


Перебор:
     Am          F              C           E
b||--------1-----------0-----|-----------1--0-----1--0--||
G||-----------2-----------2--|--------0-----------------||
D||-----2-----------3--------|-----2-----------2--------||
A||--0-----------3-----------|--3-----------------------||
E||--------------------------|--------------------------||

     Am          F              C           G
b||--------1-----------0-----|-----------1--------3--0--||
G||-----------2-----------2--|--------0-----------------||
D||-----2-----------3--------|-----2--------------------||
A||--0-----------3-----------|--3--------------2--------||
E||--------------------------|--------------3-----------|| 

Интро, куплеты, первый проигрыш и первая
половина 3 припева играются перебором.
Наверх