Аккорды Казённый унитаз - Спокойной ночи

Добавлено: @romashka
Дата добавления: 24 Марта 2022г.
Рейтинг:
0.0
Просмотров: 98
Транспонировать - +
♩ = 90
8/8
Бой "↓↓↓↓"


[Интро]
Gm F Cm Gm
Gm F Cm D
(5x)


[Куплет 1]:
Gm           F
Вечером с экранов
Cm             Gm
Мультик про баранов
Gm            F
Сказочки смотрите
Cm         D
И "Поле Чудес"
Gm           F
Разных персонажей
Cm           Gm
Нам экран покажет
Gm           F
А на кухне скажут:
Cm          D
"Это же пиздец!"


[Припев]:
Gm       F
Гномы, хряки
Cm          Gm
Свиньи и собаки
Gm           F
Говорят с экранов нам
Cm         D
А ты повторяй
Gm        F
Птицы, вороны
Cm           Gm
Курвы без короны
Gm        F           Cm  D
... и Степашка распиздяй
Gm        F           Cm  D
... и Степашка распиздяй 


[Проигрыш]
Gm F Cm Gm
Gm F Cm D
(2x)


[Куплет 2]:
Gm      F
Цифры, буквы
Cm            Gm
На заставке брюква
Gm          F
Поросёнку гномик
Cm          D
Мудрый показал
Gm          F
Сказку за правду
Cm          Gm
Дали, да и ладно
Gm            F
На последок всем "Спокойной
Cm            D
Ночи" пёс сказал


[Припев]:
Gm       F
Гномы, хряки
Cm          Gm
Свиньи и собаки
Gm           F
Говорят с экранов нам
Cm         D
А ты повторяй
Gm        F
Птицы, вороны
Cm           Gm
Курвы без короны
Gm        F           Cm  D
... и Степашка распиздяй
Gm        F           Cm  D
... и Степашка распиздяй 


[Соло]
Партия ритм-гитары играется как в проигрыше

Лид-гитара:
TAB:
   1                         2
e-|/6-----6--3--5-----5-----|/8-8-8-5-6-----6---------|
B-|-------------------------|-------------------------|
G-|-------------------------|-------------------------|
D-|-------------------------|-------------------------|
A-|-------------------------|-------------------------|
E-|-------------------------|-------------------------|

   3                         4
--|/6--6--6--3--5--5--5-----|/8--8--8--5--10---------|
--|-------------------------|-------------------------|
--|-------------------------|-------------------------|
--|-------------------------|-------------------------|
--|-------------------------|-------------------------|
--|-------------------------|-------------------------|

   5                         6                 (залигована)
--|/6-----6--3--5-----5-----|/8--8--8--5--6-----6=====|
--|-------------------------|-------------------------|
--|-------------------------|-------------------------|
--|-------------------------|-------------------------|
--|-------------------------|-------------------------|
--|-------------------------|-------------------------|

   7                         8
--|(6)----6--6--5--5--5--6--|-8-----------10---------|
--|-------------------------|-------------------------|
--|-------------------------|-------------------------|
--|-------------------------|-------------------------|
--|-------------------------|-------------------------|
--|-------------------------|-------------------------|

   9                         10            
--|------/6--6--5--5--5--6--|-8-----------10---------||
--|-------------------------|-------------------------||
--|-------------------------|-------------------------||
--|-------------------------|-------------------------||
--|-------------------------|-------------------------||
--|-------------------------|-------------------------||


[Припев]:
Gm       F
Гномы, хряки
Cm          Gm
Свиньи и собаки
Gm           F
Говорят с экранов нам
Cm         D
А ты повторяй
Gm        F
Птицы, вороны
Cm           Gm
Курвы без короны (Аа!)
Gm        F           Cm  D
... и Степашка распиздяй
Gm        F           Cm  D
... и Степашка распиздяй 


   Gm       F
А гномы, хряки
Cm          Gm
Свиньи и собаки
Gm           F
Говорят с экранов нам
Cm         D
А ты повторяй
Gm        F
Птицы, вороны
Cm           Gm
Курвы без короны
Gm        F           Cm  D
... и Степашка распиздяй
Gm        F           Cm  D
... и Степашка распиздяй 
Gm        F           Cm  D
... и Степашка распиздяй! 
Наверх