Аккорды Казённый унитаз - Гурман

Добавлено: @romashka
Дата добавления: 02 Марта 2022г.
Рейтинг:
0.0
Просмотров: 99
Транспонировать - +
Соло:
g-4-----4-----4-----4-----------------7-----7-------------------|
d-------------------------5-----5-------------------------------|x4
a----2-----2-----2-----2-----------------5-----5----------------|
e----------------------------3-----3----------------------------|

d---------------------------------------------------------------|
a---------------------------------------------------------------|x4
e-7--7--7-10-9-7---10-10-10-10-14-10-12-10-5--------------------|

Ритм: Bm | Bm | G | D x4

Ой-ой-ой-ой-ой, давай!

Bm                     G          D
Я ел суп с семи залуп, я ел борщ с восьми хуёв
Bm                G            D
И бараньего говна я въебал три казана
Bm                            G         D
Вдалеке сбрею выгодный салат. Я ему был очень рад
Bm                 G            D
Я этот салат точил и органь во хуй дрочил

Bm
Хуев повар мне готовит
G             D
Срёт кондитер в пироган
Bm
Фарш намесят, стол накроют
G          D
Потому что я гурман

[Проигрыш]: Bm | Bm | G | D x4

Суп залупа, суп залупа!

Bm                    G          D
Мне налили там тасол, а в нём ёбаный носок!
Bm                    G            D
И сказал: "Ещё хочу!", и приносят мне мочу
Bm               G         D
А во всю обоину бабка шоркала манду
Bm                 G        D
Вот я делаю укус. "Сука, охуенный вкус!"

Bm
Хуев повар мне готовит
G             D
Срёт кондитер в пироган
Bm
Фарш намесят, стол накроют
G          D
Потому что я гурман

[Проигрыш]: Bm | Bm | G | D x4

Блять! Ёб твою мать! Сука!

[Проигрыш]: Bm | Bm | G | D x4

Bm                     G              D
Мне приносят на десерт торт "Огромнейшие сиськи"
Bm                      G              D
А в хот-доги завернули хуй вместо простой сосиски!
Bm                   G           D
Перессали все компоты, блеванули мне в салат
Bm                       G           D
Жрать я буду, потому что я гурман-дегенерат!

Bm
Хуев повар мне готовит
G             D
Срёт кондитер в пироган
Bm
Фарш намесят, стол накроют
G          D
Потому что я гурман

[Проигрыш]: Bm | Bm | G | D x4

Соло:
d------------------------------------------------------------------------|
a------------------------------------------------------------------------|x4
e-7-7-9-10-9-7-9--10-9-10-12-10-9-10--7-7-9-10-9-7-9---10-9-10-14-12-10-9|

d---------------------------------------------------------------|
a---------------------------------------------------------------|x4
e-7--7--7-10-9-7---10-10-10-10-14-10-12-10-5--------------------|

Bm
Хуев повар мне готовит
G             D
Срёт кондитер в пироган
Bm
Фарш намесят, стол накроют
G          D
Потому что я гурман

Bm
Хуев повар мне готовит
G             D
Срёт кондитер в пироган
Bm
Фарш намесят, стол накроют
G                D         Bm
По-то-му что ... я гурман 

В качестве боя можно просто использовать удары вниз по струнам. 
Наверх