Аккорды Казённый унитаз - Понос

Добавлено: @romashka
Дата добавления: 12 Марта 2022г.
Рейтинг:
0.0
Просмотров: 30
Транспонировать - +
Соло на бас-гитаре:
g-----------------10-9-7--------------------7-7-7-|
d-7--7-7--7-7--7----------10--10-10--10-10--------|
a-------------------------------------------------|
e-------------------------------------------------|

[Вступление]: A5 | F5 | C5 | D5 x4

   A5        F5
Я целый день дрищу
C5        D5
Понос у меня
  A5        F5
Ничё я не хочу
C5           D5
Сильная дристня
  A5        F5
Чего-то я поел
C5             D5
Теперь в туалете я
   A5                F5
Я сру, сру, сру, сру, сру
  C5          D5
Позорная дристня.

[Проигрыш]: A5 | F5 | C5 | D5 x4

    A5           F5
Меня кто-то накормил
       C5         D5
Всякой дрянью напоил
       A5           F5
Теперь лезет вся фигня
      C5           D5
Очень сильная дристня
  A5           F5
Ядрёный мой понос
   C5      D5
Ой прёт меня
   A5        F5
И эта вся фигня
     C5          D5
У меня уже три дня.

Соло:
e-------------------------|
b-------------------------|
g-14--12-10---17-17-17-19-|
d-------------------------|

e-8-0-5-0-8-0-5-0-10-0-5-0-10-0-5-0--12-12-13-10-|
b------------------------------------------------|
g------------------------------------------------|
d------------------------------------------------|

e--------------------------|
b--------------------------|
g------9-10-12-10-9-10-9-7-|
d-7-10---------------------|

e--------------------------|
b--------------------------|
g-------1/10---1/12---1/14-|
d-1/7----------------------|

[Проигрыш]: A5 | F5 | C5 | D5 x8 

Играется боем шестёрка.
Наверх