Аккорды Казённый унитаз - Золотой унитаз

Добавлено: @romashka
Дата добавления: 15 Июня 2022г.
Рейтинг:
0.0
Просмотров: 109
Транспонировать - +
[Соло]:
e-2-2-2-2-----------2-2-2-3-2-0-|
b-----------3-2-0---------------|
g-------------------------------|
                                   x2
e-0-0-0-0---2-------------------|
b-------------3-0---2-2-2-3-0---|
g-------------------------------|

Bm
Ряженные воры, взятки и поборы
Bm                   Em
Разговоры, договоры, отдаю приказ
Em                 Bm
Верю, что я скоро, очень-очень скоро
F#                                  Bm
У себя поставлю дома золотой, да унитаз

Bm                          Em
А золотой унитаз, у меня он дома
Em       Bm     F#        Bm
Ждёт мою жопу, стоит дохрена
Bm                 B          Em
А золотой унитаз, не судите строго
Em       Bm      F#         Bm
Это моё золото с запахом говна

Bm
Разгоняем тучи, миллионов кучи
Bm                Em
Тратим и получим сверху мы за раз
Em               Bm
Всё это освоим, но освоит круче
F#                                Bm
Кто себе поставит золотой, да унитаз

Bm                          Em
А золотой унитаз, у меня он дома
Em       Bm     F#        Bm
Ждёт мою жопу, стоит дохрена
Bm                 B          Em
А золотой унитаз, не судите строго
Em       Bm      F#         Bm
Это моё золото с запахом говна

[Первая часть соло]:
g-----------------------------|
d-4-4-4-4-2-4-4---4-2-4-5-4-4-|
a-----------------------------|

g-----------------------------|
d-4-2-4-5-4-4-2-4-5-5-5-7-5---|
a-----------------------------|

g-----------------------------|
d-5-5-5-4-5-5---9-9-9-8-9-9---|
a-----------------------------|

e-------------------------2---|
b-----------------3-4-5-6-----|
g---------3-4-5-6-------------|
d-4-5-6-7---------------------|
a-----------------------------|

[Вторая часть соло]:
e-2-2-2-2-----------2-2-2-3-2-0-|
b-----------3-2-0---------------|
g-------------------------------|
                                   x2
e-0-0-0-0---2-------------------|
b-------------3-0---2-2-2-3-0---|
g-------------------------------|

C#m
Вдруг разоблаченье — имущества лишенье
C#m                      F#m
Ущерба погашенье — не отвертишься сейчас
F#m                C#m
Вижу разрешенье — дом и украшенья
G#                          C#m
В конфискат забрали даже унитаз

C#m                          F#m
А золотой унитаз, у меня он дома
F#m      C#m    G#        C#m
Ждёт мою жопу, стоит дохрена
C#m                C#         F#m
А золотой унитаз, не судите строго
F#m      C#m      G#       C#m
Это моё золото с запахом говна
F#m      C#m      G#       C#m
Это моё золото с запахом говна 
Наверх