Аккорды Казённый унитаз - Подлая залупа

Добавлено: @romashka
Дата добавления: 02 Августа 2022г.
Рейтинг:
0.0
Просмотров: 47
Транспонировать - +
[Вступление]: Em | B x4 

[Соло]:
d-9-9-9-10-9-7-9---9-9-9-10-9--7-|
a--------------------------------|
                                   x4
d--------------------------------|
a-9-9-9-10-9-7-9---9-9-9-10-9--7-|

Em
С утра рано надо встать
Em
Я тащу член поссать
B
Это после супа, 
B
Подлая залупа
Em
Когда начинаю ссать, 
Em
Не могу её поймать
B
Перессыт всё тупо, 
B
Подлая залупа

[Проигрыш]: Em | B x4 

[Соло]:
d-9-9-9-10-9-7-9---9-9-9-10-9--7-|
a--------------------------------|
                                   x4
d--------------------------------|
a-9-9-9-10-9-7-9---9-9-9-10-9--7-|

Em
Ей до чёрта, кого драть
Em
Она может намотать
B
Голова то глупа, 
B
Подлая залупа
Em
Чтобы мне не намотать, 
Em
Я беру её опять
B
Зажимаю в руку, 
B
Подлую залупу

G           B
И начинаю душить и гонять

[Проигрыш]: Em | B x6

[Соло]:
d---------9-9-10-10-9-9-9-9-----------|
a-7-7-7-7-------------------9-9-10-10-|
                                        x6
d---------7-7-------------------------|
a-9-9-9-9-----10-10-9-9-9-9-10-10-9-9-| 
Наверх