Аккорды Klaxons - Cypherspeed

Добавлено: @romashka
Дата добавления: 30 Апреля 2018г.
Рейтинг:
0.0
Просмотров: 61
Транспонировать - +
Key: h-Hammer on ~-bend


INTRO:
G|------------------|
D|------------------|  X1
A|--33--33----------|
E|----------44--44--|

CHORUS:
G|------------------------------------------------------------------|
D|------------------------------------------------------------------| X2
A|--3-6-3-6-3h6-3h6-3-6-3-6-3h6-3h6---------------------------------|
E|----------------------------------4-7-4-7-4h7-4h7-4-7-4-7-4h7-4h7-|

VERSE PART 1:
G|--------------------------|
D|------------------10------|  X1
A|--3~----------------------|
E|--------------------------|

VERSE PART 2:
G|---------5------------5~--|
D|-----4-----4------4-------|  X4
A|--33---3-------33---3-----|
E|--------------------------|

VERSE PART 3:
G|----------------|
D|-555-4----------| X4
A|-------4--3-----|
E|----------------|

VERSE PART 4
G|--121212-11-----------|
D|------------11-10-----|  X3 (12's, 11's and 10's)
A|----------------------|
E|----------------------|

CHORUS:
G|------------------------------------------------------------------|
D|------------------------------------------------------------------| X2
A|--3-6-3-6-3h6-3h6-3-6-3-6-3h6-3h6---------------------------------|
E|----------------------------------4-7-4-7-4h7-4h7-4-7-4-7-4h7-4h7-|

CHORUS PART 2:
G|--5-8-5-8-5h8-5h8-5-8-5-8-5h8-5h8--------------------------------|
D|----------------------------------6-9-69-6h9-6h9-6-9-6-9-6h9-6h9-| X2
A|-----------------------------------------------------------------|
E|-----------------------------------------------------------------|

VERSE PART 1:
G|--------------------------|
D|------------------10------|  X1
A|--3~----------------------|
E|--------------------------|

VERSE PART 2:
G|---------5------------5~--|
D|-----4-----4------4-------|  X4
A|--33---3-------33---3-----|
E|--------------------------|

VERSE PART 3:
G|----------------|
D|-555-4----------| X4
A|-------4--3-----|
E|----------------|

VERSE PART 4
G|--121212-11-----------|
D|------------11-10-----|  X3 (12's, 11's and 10's)
A|----------------------|
E|----------------------|

CHORUS:
G|------------------------------------------------------------------|
D|------------------------------------------------------------------| X2
A|--3-6-3-6-3h6-3h6-3-6-3-6-3h6-3h6---------------------------------|
E|----------------------------------4-7-4-7-4h7-4h7-4-7-4-7-4h7-4h7-|

CHORUS PART 2:
G|--5-8-5-8-5h8-5h8-5-8-5-8-5h8-5h8--------------------------------|
D|----------------------------------6-9-69-6h9-6h9-6-9-6-9-6h9-6h9-| X2
A|-----------------------------------------------------------------|
E|-----------------------------------------------------------------|

Break then

BRIDGE:
G|--5-----------------5----------------|
D|------ -------3-4-5-------------3-4--| X4
A|----3-4-5-6-7---------3-4-5-6-7------|
E|-------------------------------------|

Then another break then:
CHORUS:
G|------------------------------------------------------------------|
D|------------------------------------------------------------------| X2
A|--3-6-3-6-3h6-3h6-3-6-3-6-3h6-3h6---------------------------------|
E|----------------------------------4-7-4-7-4h7-4h7-4-7-4-7-4h7-4h7-|

CHORUS PART 2:
G|--5-8-5-8-5h8-5h8-5-8-5-8-5h8-5h8--------------------------------|
D|----------------------------------6-9-69-6h9-6h9-6-9-6-9-6h9-6h9-| X2
A|-----------------------------------------------------------------|
E|-----------------------------------------------------------------|

VERSE PART 3:
G|----------------|
D|-555-4----------| X4
A|-------4--3-----|
E|----------------|

VERSE PART 4
G|--121212-11-----------|
D|------------11-10-----|  X4 (12's, 11's and 10's)
A|----------------------|
E|----------------------|

VERSE PART 3:
G|----------------|
D|-555-4----------| X4
A|-------4--3-----|
E|----------------|

VERSE PART 4
G|--121212-11-----------|
D|------------11-10-----|  X3 (12's, 11's and 10's)
A|----------------------|
E|----------------------|

END OF SONG...OR

as the end plays with the synth
G|----|
D|----|  til the end
A|-3~-|
E|----|
comments powered by Disqus
Наверх