Аккорды Klaxons - Forgotten Works

Добавлено: @romashka
Дата добавления: 30 Апреля 2018г.
Рейтинг:
0.0
Просмотров: 55
Транспонировать - +
Tuning:EADG
Intro
G|---------------------------------------------------------------------------|
D|---------------------------------------------------------------------------|
A|-------5-------------------------------------------------------------------|
E|-5-7-7---5-7---------------------------------------------------------------|
main
G|---------------------------------------------------------------------------|
D|---------------------------------------------------------------------------|
A|-----------97--------------------------------------------------------------|
E|-7-7-10-7----109-----------------------------------------------------------|
other
G|---------------------------------------------------------------------------|
D|---------------------------------------------------------------------------|
A|-999-9-9-9-577-7-7-7--------5------------5---------------------------------|
E|-----------------------7-7---5-7---5-7-7---5-7-----------------------------|
end
G|---------------------------------------------------------------------------|
D|---------------------------------------------------------------------------|
A|---------------------------------------------------------------------------|
E|--77--77--77--77--77--77--77--77--77--77-----------------------------------|
comments powered by Disqus
Наверх