Аккорды Klaxons - Gravity's Rainbow

Добавлено: @romashka
Дата добавления: 30 Апреля 2018г.
Рейтинг:
0.0
Просмотров: 17
Транспонировать - +
Intro
G|--------------------------|
D|----------222-------111---|
A|----0333-------222--------| x1
E|--------------------------|

G|--------------------------|
D|----------222-------111---|
A|-----333-------222--------| x3
E|--------------------------|



Verse ("Come on with me through...")
G|--------------------------|
D|----------222-------111---|
A|-----333-------222--------| x4
E|--------------------------|



Break
G|--------------------------|
D|-----------2-2-0----------|
A|---3--2--2-------0--------| x4
E|--------------------------|



Verse ("All ships of sense...")
G|--------------------------|
D|----------222-------111---|
A|-----333-------222--------| x4
E|--------------------------|



Chorus ("Come with me, come with me...")
G|---00000------------------|
D|---------2------0---2-----|
A|--------------------------| x4
E|--------------------------|



Break
G|--------------------------|
D|----------222-------111---|
A|-----333-------222--------| x4
E|--------------------------|



Verse ("Your tears leave trails...")
G|--------------------------|
D|----------222-------111---|
A|-----333-------222--------| x4
E|--------------------------|




Chorus ("Come with me, come with me...")
G|---00000------------------|
D|---------2------0---2-----|
A|--------------------------| x4
E|--------------------------|

G|--------------------------|
D|---------------222--------|
A|-----333--222-------555---| x12
E|--------------------------|

G|--------------------------|
D|--------------------------|
A|-3------------------------| x1
E|--------------------------|
comments powered by Disqus
Наверх