Аккорды Klaxons - The Bouncer

Добавлено: @romashka
Дата добавления: 30 Апреля 2018г.
Рейтинг:
0.0
Просмотров: 114
Транспонировать - +
(0:14)

e|-------|
B|-------|
G|---6-7-|
D|-4-----| 
A|-------|
E|-------|  x7

(Pause) "You're name's not down, you're not coming in"

e|-------|
B|-------|
G|---6-7-|
D|-4-----| 
A|-------|
E|-------|  x7

(Pause) "You're names not down, not, not tonight"

e|-----10----10-----10-10-----------10----10----10-|
B|-10----10----10----------10---10----10----10-----|
G|-------------------------------------------------|
D|-------------------------------------------------|
A|-------------------------------------------------|
E|-------------------------------------------------|

(Pause) "Not tonight, you're not on the list"

e|-------|
B|-------|
G|---6-7-|
D|-4-----| 
A|-------|
E|-------|  x7

(Pause) "You're name's not down, you're not coming in"

e|-------|
B|-------|
G|---6-7-|
D|-4-----|  
A|-------|
E|-------|  x7

(Pause) "Not tonight, not, not tonight"

e|-----10----10-----10-10-----------10----10----10-10-|
B|-10----10----10----------10---10----10----10--------|
G|----------------------------------------------------|
D|----------------------------------------------------|
A|----------------------------------------------------|
E|----------------------------------------------------|

(Pause) "Not tonight you're not on the list"

e|-------|
B|-------|
G|---6-7-|
D|-4-----| 
A|-------|
E|-------|  x7

(Pause) "You're name's not down, you're not coming in"

e|-------|
B|-------|
G|---6-7-|
D|-4-----|  
A|-------|
E|-------|  x7
comments powered by Disqus
Наверх