Аккорды Klaxons - The Bouncer

Добавлено: @romashka
Дата добавления: 30 Апреля 2018г.
Рейтинг:
0.0
Просмотров: 23
Транспонировать - +
Tuning: standard

G|---------------------------------------|
D|---------------------------------------|
A|-------222-------222-------222--222-0--|
E|-222-------222------222------------2---|

G|---------------------------------------|
D|---------------------------------------|
A|---------555------555------555--555-3--|
E|---555-------555-----555-----------5---|

G|---------------------------------------|
D|---------------------------------------|
A|-------222-------222-------222--222-0--|
E|-222-------222------222------------2---|

G|---------------------------------------|
D|---------------------------------------|
A|---------555------555------555--555-3--|
E|---555-------555-----555-----------5---|

G|---------------------------------------------------------------------------------|
D|----4--0-----4------4--0-----4---------------------------------------------------|
A|----------2---------------2------------------------------------------------------|
E|---------------------------------------------------------------------------------|

G|---------------------------------------|
D|---------------------------------------|
A|-------222-------222-------222--222-0--|
E|-222-------222------222------------2---|

G|---------------------------------------|
D|---------------------------------------|
A|-------222-------222-------222--222-0--|
E|-222-------222------222------------2---|
comments powered by Disqus
Наверх