Аккорды Klaxons - It’s Not Over Yet

Добавлено: @romashka
Дата добавления: 30 Апреля 2018г.
Рейтинг:
0.0
Просмотров: 35
Транспонировать - +
TUNING: STANDARD


 
     A                              F#m
E----17----14----16--------------]--17----14----16----------------]
B----------------------14----14--]--------------------14----14----]
G--------------------------------]--------------------------------]
D--------------------------------]--------------------------------]
A--------------------------------]--------------------------------]
E--------------------------------]--------------------------------]


     C#m
E----17----14----16--------------]--17----14----16----------------]
B----------------------14----14--]--------------------14----14----]
G--------------------------------]--------------------------------]
D--------------------------------]--------------------------------]
A--------------------------------]--------------------------------]
E--------------------------------]--------------------------------]



     A                              F#m
E----17----14----16--------------]--17----14----16----------------]
B----------------------14----14--]--------------------14----14----]
G--------------------------------]--------------------------------]
D--------------------------------]--------------------------------]
A--------------------------------]--------------------------------]
E--------------------------------]--------------------------------]


     C#m
E----17----14----16--------------]--17----14----16----------------]
B----------------------14----14--]--------------------14----14----]
G--------------------------------]--------------------------------]
D--------------------------------]--------------------------------]
A--------------------------------]--------------------------------]
E--------------------------------]--------------------------------]


VERSE 1


                             A        F#m
                         i'd live for you

                             C#m
                         i'd die for you

                            A        F#m     C#m
                         do what you want me to

                             A       F#m
                         i'd cry for you

                            C#m
                         my tears will show

                             A        F#m     C#m
                         that i can't let you go


INTERLUDE



     A                              F#m
E----17----14----16--------------]--17----14----16----------------]
B----------------------14----14--]--------------------14----14----]
G--------------------------------]--------------------------------]
D--------------------------------]--------------------------------]
A--------------------------------]--------------------------------]
E--------------------------------]--------------------------------]

                                   
     C#m
E----17----14----16--------------]--17----14----16----------------]
B----------------------14----14--]--------------------14----14----]
G--------------------------------]--------------------------------]
D--------------------------------]--------------------------------]
A--------------------------------]--------------------------------]
E--------------------------------]--------------------------------]


     A                              F#m
E----17----14----16--------------]--17----14----16----------------]
B----------------------14----14--]--------------------14----14----]
G--------------------------------]--------------------------------]
D--------------------------------]--------------------------------]
A--------------------------------]--------------------------------]
E--------------------------------]--------------------------------]


     C#m
E----17----14----16--------------]--17----14----16----------------]
B----------------------14----14--]--------------------14----14----]
G--------------------------------]--------------------------------]
D--------------------------------]--------------------------------]
A--------------------------------]--------------------------------]
E--------------------------------]--------------------------------]



CHORUS


            A                   F#m             C#m
   it's not over, not over, not over, not over yet (you still want me, 
   don't you?)   


        A                   F#m             C#m
   it's not over, not over, not over, not over yet (cos i can see 
   through you)


         A                   F#m             C#m
   it's not over, not over, not over, not over yet (you still want me, 
   don't you?)   


        A                   F#m                C#m
   it's not over, not over, not over, not over yet


VERSE 2

                           A
                    don't let me down 

                          C#m
                    don't make a sound

                          A            C#m
                    don't throw it all a-way

                      A      F#m
                    remember me

                       C#m
                    so tenderly
 
                          A      F#m   C#m
                    don't let it slip a-way 



                  REPEAT INTERLUDE AND CHORUS


                  INSTRUMENTAL: A ///  F#m /// C#m/// //// (X2)


                  
     A                              F#m
E----17----14----16--------------]--17----14----16----------------]
B----------------------14----14--]--------------------14----14----]
G--------------------------------]--------------------------------]
D--------------------------------]--------------------------------]
A--------------------------------]--------------------------------]
E--------------------------------]--------------------------------]


     C#m
E----17----14----16--------------]--17----14----16----------------]
B----------------------14----14--]--------------------14----14----]
G--------------------------------]--------------------------------]
D--------------------------------]--------------------------------]
A--------------------------------]--------------------------------]
E--------------------------------]--------------------------------]




                            REPEAT CHORUS


                 INSTRUMENTAL TO END (OVER A CHORD)
comments powered by Disqus
Наверх