Аккорды Klaxons - It’s Not Over Yet

Добавлено: @romashka
Дата добавления: 30 Апреля 2018г.
Рейтинг:
0.0
Просмотров: 27
Транспонировать - +
Tuning: Standard

e|-----------------------------------------------------------------------------------|
B|-----------------------------------------------------------------------------------|
G|-----------------------------------------------------------------------------------|
D|--7---------------7---------------7---------------7--------------------------------|
A|-----9--11-----------9--11-----------9--11-----------9--11-------------------------|
E|------------9--9------------9--9------------9--9------------9--9-------------------|

e|-----------------------------------------------------------------------------------|
B|-----------------------------------------------------------------------------------|
G|-----------------------------------------------------------------------------------|
D|-----------------------------------------------------------------------------------|
A|--12--9--4--4----12--9--4--4-------------------------------------------------------|
E|-----------------------------------------------------------------------------------|

e|-----------------------------------------------------------------------------------|
B|-----------------------------------------------------------------------------------|
G|--14--11--6--14--11--6-------------------------------------------------------------|
D|--14--11--6--14--11--6-------------------------------------------------------------|
A|--12--9---4--12--9---4-------------------------------------------------------------|
E|-----------------------------------------------------------------------------------|

e|-----------------------------------------------------------------------------------|
B|--14-14-14-14-14-17-17-17-10-10-10-10-10-10-10-10-9-9-9-9-9-9-9-9-9-9-9-9-9-9-9-9--|
G|-----------------------------------------------------------------------------------|
D|-----------------------------------------------------------------------------------|
A|-----------------------------------------------------------------------------------|
E|-----------------------------------------------------------------------------------|

| /  slide up
| \  slide down
| h  hammer-on
| p  pull-off
| ~  vibrato
| +  harmonic
| x  Mute note
=====================================================================================
comments powered by Disqus
Наверх