Аккорды Klaxons - Four Horsemen of 2012

Добавлено: @romashka
Дата добавления: 30 Апреля 2018г.
Рейтинг:
0.0
Просмотров: 66
Транспонировать - +
main riff till the chorus
C-----------------------------------------------------------------------------|
G-----------------------------------------------------------------------------|
D-----111-----111-----111-----------------------------------------------------|
A-------------------------3~--------------------------------------------------|
E-222-----222-----222---------------------------------------------------------|
B-----------------------------------------------------------------------------|

chorus
C-----------------------------------------------------------------------------|
G-------------------0~-1~-----------------------------------------------------|
D----------0~-2~-3~-----------------------------------------------------------|
A-0~-2~-3~--------------------------------------------------------------------|
E-----------------------------------------------------------------------------|
B-----------------------------------------------------------------------------|
comments powered by Disqus
Наверх