Аккорды Klaxons - Isle of Her

Добавлено: @romashka
Дата добавления: 30 Апреля 2018г.
Рейтинг:
0.0
Просмотров: 23
Транспонировать - +
Starts off with the wierd drum thing
Intro
G|-------------------------------------------------------------------------|
D|-------------------------------------------------------------------------|
A|1-121-1-1-1-1-1-1-1-12---------------------------------------------------|
E|----------------------2--------------------------------------------------|

verse(x7)         (carry this on from the verse)
G|--------------|----------------------------------------------------------|
D|--------------|----------------------------------------------------------|
A|1--12----43---|1-12-----24-----------------------------------------------|
E|-----2-2------|----2-2---------------------------------------------------|

verse(x3)         (carry this on from the verse)
G|--------------|----------------------------------------------------------|
D|--------------|----------------------------------------------------------|
A|1-12----43----|1-12---24-------------------------------------------------|
E|----2-2-------|----2-2---------------------------------------------------|

Chorus (play in order)(there is very little change in the other instruments so listen
first)
G|--------------|----------|----------|------------------------------------|
D|--------------|----------|----------|------------------------------------|
A|1-12---43-----|1-12------|1-12---43-|1-12---24---------------------------|
E|----2-2-------|----2-2-2-|----2-2---|----2-2-----------------------------|


The rest is pretty much the same you just have to listen out for it
comments powered by Disqus
Наверх