Аккорды Klaxons - It’s Not Over Yet

Добавлено: @romashka
Дата добавления: 30 Апреля 2018г.
Рейтинг:
0.0
Просмотров: 23
Транспонировать - +
| /  slide up
| \  slide down
| h  hammer-on
| p  pull-off
| ~  vibrato
| +  harmonic
| x  Mute note
| b bend string
===============================================================================UPDATES: 
changed  the chorus a little to make it correct


e|-------17-14-16---------17-14-16------17-14-16-------17-14-16--------|
B|----------------14-14-----------14-14----------14-14----------14-14--|
G|---------------------------------------------------------------------|
D|---------------------------------------------------------------------|
A|---------------------------------------------------------------------|
E|---------------------------------------------------------------------|
Thats the intro for guitar.
The verse is...
e|------------------------------------------------------|
B|------------------------------------------------------|
G|------------------------------------------------------|
D|------------------------------------------------------|
A|--0b--9b--4b--4b----0b--9b--4b--4b----0b--9b--4b--4b--|
E|------------------------------------------------------|
The chorus is
e|-0-0-0-0--9--9--9--9--4-4-4-4--|
B|-2-2-2-2--11-11-11-11-6-6-6-6--|
G|-2-2-2-2--11-11-11-11-6-6-6-6--|
D|-2-2-2-2--11-11-11-11-6-6-6-6--|
A|-0-0-0-0---9--9--9--9-4-4-4-4--|
E|-0-0-0-0---9--9--9--9-4-4-4-4--|

and the ending part/outro is

e|-----------------------------|
B|-10-10-9-10-10-9-10-10-9-10--|
G|-----------------------------|
D|-----------------------------|
A|-----------------------------|
E|-----------------------------|
comments powered by Disqus
Наверх