Аккорды Klaxons - Atlantis to Interzone

Добавлено: @romashka
Дата добавления: 30 Апреля 2018г.
Рейтинг:
0.0
Просмотров: 81
Транспонировать - +
Intro -

E-----------------------------------------------|
B-----------------------------------------------|
G-----------------------------------------------|
D-----------------------------------------------|
A------5-7-5-------------------5-7-5------------|
E-555-8------1-1-1-3-1-3--555-8-----1-1-1-3-1-3-|

Break -

E---------------------------------------|
B---------------------------------------|
G---------------------------------------|
D------8------------------8-------------|
A-7777---7------10---7777---7------10---|
E----------7777----7----------7777----7-|

Other Break -

E--------------------------------------|
B--------------------------------------|
G--------------------------------------|
D--------------------------------------|
A--------------------------------------|
E-444-333-444-333-444-333-444-333------|
comments powered by Disqus
Наверх